999
DXF file: a07_multi-2x_2d.dxf
999
Pro/ENGINEER 2023494 by Parametric Technology Corporation
  0
SECTION
  2
HEADER
  9
$ACADVER
  1
AC1027
  9
$DWGCODEPAGE
  3
ANSI_1252
  9
$EXTMAX
 10
1782.0
 20
1260.0
 30
0.0
  9
$EXTMIN
 10
0.0
 20
0.0
 30
0.0
  9
$LIMMIN
 10
0.0
 20
0.0
  9
$LIMMAX
 10
1782.0
 20
1260.0
  9
$VIEWCTR
 10
891.0
 20
630.0
  9
$VIEWSIZE
 40
1260.0
  9
$CLAYER
  8
0
  9
$LTSCALE
 40
98.01
  9
$CELTYPE
  6
BYLAYER
  9
$DIMSCALE
 40
1.0
  9
$DIMASZ
 40
4.0
  9
$DIMEXO
 40
1.0
  9
$DIMDLI
 40
67.716
  9
$DIMEXE
 40
1.0
  9
$DIMCEN
 40
16.038
  9
$DIMLFAC
 40
1.0
  9
$DIMBLK
  1
_FILLED
  9
$DIMALT
 70
0
  9
$DIMALTF
 40
0.0393700787
  9
$DIMTXT
 40
3.0
  9
$DIMTOL
 70
1
  9
$DIMLIM
 70
0
  9
$DIMTFAC
 40
1.0
  9
$DIMTP
 40
0.001
  9
$DIMTM
 40
0.001
  9
$DIMGAP
 40
0.625
  9
$DIMDSEP
 70
46
  9
$AUNITS
 70
0
  9
$PDMODE
 70
3
  9
$PDSIZE
 40
0.3125
  9
$HANDSEED
  5
387
  9
$TILEMODE
 70
1
  9
$MEASUREMENT
 70
1
  9
$INSUNITS
 70
4
  0
ENDSEC
  0
SECTION
  2
CLASSES
  0
CLASS
  1
ACDBDICTIONARYWDFLT
  2
AcDbDictionaryWithDefault
  3
AutoCAD 2000
 90
0
 91
1
280
0
281
0
  0
CLASS
  1
ACDBPLACEHOLDER
  2
AcDbPlaceHolder
  3
AutoCAD 2000
 90
0
 91
1
280
0
281
0
  0
CLASS
  1
LAYOUT
  2
AcDbLayout
  3
AutoCAD 2000
 90
0
 91
0
280
0
281
0
  0
ENDSEC
  0
SECTION
  2
TABLES
  0
TABLE
  2
VPORT
  5
8
100
AcDbSymbolTable
 70
2
  0
VPORT
  5
1F4
100
AcDbSymbolTableRecord
100
AcDbViewportTableRecord
  2
*ACTIVE
 70
0
 10
0.0
 20
0.0
 11
1.0
 21
1.0
 12
891.0
 22
630.0
 13
0.0
 23
0.0
 14
1.0
 24
1.0
 15
0.0
 25
0.0
 16
0.0
 26
0.0
 36
1.0
 17
0.0
 27
0.0
 37
0.0
 40
1260.0
 41
1.4142857143
 42
50.0
 43
0.0
 44
0.0
 50
0.0
 51
0.0
 71
0
 72
100
 73
1
 74
1
 75
0
 76
0
 77
0
 78
0
  0
ENDTAB
  0
TABLE
  2
LTYPE
  5
5
100
AcDbSymbolTable
 70
6
  0
LTYPE
  5
14
100
AcDbSymbolTableRecord
100
AcDbLinetypeTableRecord
  2
BYBLOCK
 70
0
  3

 72
65
 73
0
 40
0.0
  0
LTYPE
  5
15
100
AcDbSymbolTableRecord
100
AcDbLinetypeTableRecord
  2
BYLAYER
 70
0
  3

 72
65
 73
0
 40
0.0
  0
LTYPE
  5
16
100
AcDbSymbolTableRecord
100
AcDbLinetypeTableRecord
  2
CONTINUOUS
 70
64
  3
Solid line
 72
65
 73
0
 40
0.0
  0
LTYPE
  5
1F5
100
AcDbSymbolTableRecord
100
AcDbLinetypeTableRecord
  2
CENTER
 70
64
  3
____ _ ____ _ ____ _ ____ _ ____ _ ____ _ ____
 72
65
 73
4
 40
0.6
 49
0.375
 74
0
 49
-0.075
 74
0
 49
0.075
 74
0
 49
-0.075
 74
0
  0
LTYPE
  5
1F6
100
AcDbSymbolTableRecord
100
AcDbLinetypeTableRecord
  2
HIDDEN
 70
64
  3
- - - - - - - - - - - - - - - - - - - -
 72
65
 73
2
 40
0.2
 49
0.1
 74
0
 49
-0.1
 74
0
  0
LTYPE
  5
1F7
100
AcDbSymbolTableRecord
100
AcDbLinetypeTableRecord
  2
PHANTOM
 70
64
  3
_____ _ _ _____ _ _ _____ _ _ _____
 72
65
 73
6
 40
0.8
 49
0.45
 74
0
 49
-0.05
 74
0
 49
0.1
 74
0
 49
-0.05
 74
0
 49
0.1
 74
0
 49
-0.05
 74
0
  0
LTYPE
  5
1F8
100
AcDbSymbolTableRecord
100
AcDbLinetypeTableRecord
  2
DOT
 70
64
  3
. . . . . . . . . . . . . . . . . . . .
 72
65
 73
2
 40
0.2
 49
0.1
 74
0
 49
-0.1
 74
0
  0
LTYPE
  5
1F9
100
AcDbSymbolTableRecord
100
AcDbLinetypeTableRecord
  2
DASHED
 70
64
  3
- - - - - - - - - - - - - - - - - - - -
 72
65
 73
2
 40
0.2
 49
0.1
 74
0
 49
-0.1
 74
0
  0
ENDTAB
  0
TABLE
  2
LAYER
  5
2
100
AcDbSymbolTable
 70
36
  0
LAYER
  5
10
100
AcDbSymbolTableRecord
100
AcDbLayerTableRecord
  2
0
 70
0
 62
7
  6
CONTINUOUS
370
-3
390
F
  0
LAYER
  5
1FA
100
AcDbSymbolTableRecord
100
AcDbLayerTableRecord
  2
DEFAULT_1
 70
0
 62
7
  6
CENTER
370
-3
390
F
  0
LAYER
  5
1FB
100
AcDbSymbolTableRecord
100
AcDbLayerTableRecord
  2
DEFAULT_2
 70
0
 62
8
  6
HIDDEN
370
-3
390
F
  0
LAYER
  5
1FC
100
AcDbSymbolTableRecord
100
AcDbLayerTableRecord
  2
DEFAULT_3
 70
0
 62
7
  6
PHANTOM
370
-3
390
F
  0
LAYER
  5
1FD
100
AcDbSymbolTableRecord
100
AcDbLayerTableRecord
  2
01TYA59Y05-1_2
 70
0
 62
7
  6
CONTINUOUS
370
-3
390
F
  0
LAYER
  5
1FE
100
AcDbSymbolTableRecord
100
AcDbLayerTableRecord
  2
01TYA59Y05-1_2_1
 70
0
 62
7
  6
CONTINUOUS
370
-3
390
F
  0
LAYER
  5
1FF
100
AcDbSymbolTableRecord
100
AcDbLayerTableRecord
  2
01TYA59Y05-1_2_2
 70
0
 62
7
  6
CONTINUOUS
370
-3
390
F
  0
LAYER
  5
200
100
AcDbSymbolTableRecord
100
AcDbLayerTableRecord
  2
01TYA59Y05-1_2_3
 70
0
 62
7
  6
CONTINUOUS
370
-3
390
F
  0
LAYER
  5
201
100
AcDbSymbolTableRecord
100
AcDbLayerTableRecord
  2
01TYA59Y05-2_5
 70
0
 62
7
  6
CONTINUOUS
370
-3
390
F
  0
LAYER
  5
202
100
AcDbSymbolTableRecord
100
AcDbLayerTableRecord
  2
01TYA59Y05-2_5_1
 70
0
 62
7
  6
CONTINUOUS
370
-3
390
F
  0
LAYER
  5
203
100
AcDbSymbolTableRecord
100
AcDbLayerTableRecord
  2
1_ALL_PLANES
 70
0
 62
7
  6
CONTINUOUS
370
-3
390
F
  0
LAYER
  5
204
100
AcDbSymbolTableRecord
100
AcDbLayerTableRecord
  2
1__DEF_PLANES
 70
0
 62
7
  6
CONTINUOUS
370
-3
390
F
  0
LAYER
  5
205
100
AcDbSymbolTableRecord
100
AcDbLayerTableRecord
  2
2_ALL_CSYS
 70
0
 62
7
  6
CONTINUOUS
370
-3
390
F
  0
LAYER
  5
206
100
AcDbSymbolTableRecord
100
AcDbLayerTableRecord
  2
2__DEF_CSYS
 70
0
 62
7
  6
CONTINUOUS
370
-3
390
F
  0
LAYER
  5
207
100
AcDbSymbolTableRecord
100
AcDbLayerTableRecord
  2
860600100213_RONDELLA_M3_ZINC_1
 70
0
 62
7
  6
CONTINUOUS
370
-3
390
F
  0
LAYER
  5
208
100
AcDbSymbolTableRecord
100
AcDbLayerTableRecord
  2
860600100213_RONDELLA_M3_ZINC_2
 70
0
 62
7
  6
CONTINUOUS
370
-3
390
F
  0
LAYER
  5
209
100
AcDbSymbolTableRecord
100
AcDbLayerTableRecord
  2
860600100213_RONDELLA_M3_ZINC_3
 70
0
 62
7
  6
CONTINUOUS
370
-3
390
F
  0
LAYER
  5
20A
100
AcDbSymbolTableRecord
100
AcDbLayerTableRecord
  2
A0701004_D200_CLUSTER_ASM_6
 70
0
 62
7
  6
CONTINUOUS
370
-3
390
F
  0
LAYER
  5
20B
100
AcDbSymbolTableRecord
100
AcDbLayerTableRecord
  2
A0701004_D200_CLUSTER_ASM_6_1
 70
0
 62
7
  6
CONTINUOUS
370
-3
390
F
  0
LAYER
  5
20C
100
AcDbSymbolTableRecord
100
AcDbLayerTableRecord
  2
A0707004_LENTE_60_4
 70
0
 62
7
  6
CONTINUOUS
370
-3
390
F
  0
LAYER
  5
20D
100
AcDbSymbolTableRecord
100
AcDbLayerTableRecord
  2
A0707004_LENTE_60_4_1
 70
0
 62
7
  6
CONTINUOUS
370
-3
390
F
  0
LAYER
  5
20E
100
AcDbSymbolTableRecord
100
AcDbLayerTableRecord
  2
A0707005_TORNITO_PORTALENTE_8
 70
0
 62
7
  6
CONTINUOUS
370
-3
390
F
  0
LAYER
  5
20F
100
AcDbSymbolTableRecord
100
AcDbLayerTableRecord
  2
A0707005_TORNITO_PORTALENTE_8_1
 70
0
 62
7
  6
CONTINUOUS
370
-3
390
F
  0
LAYER
  5
210
100
AcDbSymbolTableRecord
100
AcDbLayerTableRecord
  2
A0707006_RIFLETTORE-HOLDER_25
 70
0
 62
7
  6
CONTINUOUS
370
-3
390
F
  0
LAYER
  5
211
100
AcDbSymbolTableRecord
100
AcDbLayerTableRecord
  2
A0707006_RIFLETTORE-HOLDER_25_1
 70
0
 62
7
  6
CONTINUOUS
370
-3
390
F
  0
LAYER
  5
212
100
AcDbSymbolTableRecord
100
AcDbLayerTableRecord
  2
A0707007_PIASTRA_FILETTATURE_12
 70
0
 62
7
  6
CONTINUOUS
370
-3
390
F
  0
LAYER
  5
213
100
AcDbSymbolTableRecord
100
AcDbLayerTableRecord
  2
A0707007_PIASTRA_FILETTATURE__1
 70
0
 62
7
  6
CONTINUOUS
370
-3
390
F
  0
LAYER
  5
214
100
AcDbSymbolTableRecord
100
AcDbLayerTableRecord
  2
A0707008_COPERCHIO-ATTACCHI_9
 70
0
 62
7
  6
CONTINUOUS
370
-3
390
F
  0
LAYER
  5
215
100
AcDbSymbolTableRecord
100
AcDbLayerTableRecord
  2
A0707008_COPERCHIO-ATTACCHI_9_1
 70
0
 62
7
  6
CONTINUOUS
370
-3
390
F
  0
LAYER
  5
216
100
AcDbSymbolTableRecord
100
AcDbLayerTableRecord
  2
A0707009_TUB-SOSP-370_14
 70
0
 62
7
  6
CONTINUOUS
370
-3
390
F
  0
LAYER
  5
217
100
AcDbSymbolTableRecord
100
AcDbLayerTableRecord
  2
A0707009_TUB-SOSP-370_14_1
 70
0
 62
7
  6
CONTINUOUS
370
-3
390
F
  0
LAYER
  5
218
100
AcDbSymbolTableRecord
100
AcDbLayerTableRecord
  2
A0707014_MOLLA-TORN-PORTALENTE_
 70
0
 62
7
  6
CONTINUOUS
370
-3
390
F
  0
LAYER
  5
219
100
AcDbSymbolTableRecord
100
AcDbLayerTableRecord
  2
A0707014_MOLLA-TORN-PORTALENT_1
 70
0
 62
7
  6
CONTINUOUS
370
-3
390
F
  0
LAYER
  5
21A
100
AcDbSymbolTableRecord
100
AcDbLayerTableRecord
  2
A0707014_MOLLA-TORN-PORTALENT_2
 70
0
 62
7
  6
CONTINUOUS
370
-3
390
F
  0
LAYER
  5
21B
100
AcDbSymbolTableRecord
100
AcDbLayerTableRecord
  2
A0707014_MOLLA-TORN-PORTALENT_3
 70
0
 62
7
  6
CONTINUOUS
370
-3
390
F
  0
LAYER
  5
21C
100
AcDbSymbolTableRecord
100
AcDbLayerTableRecord
  2
A0707015_CAPPELLO-D200_CLUSTER_
 70
0
 62
7
  6
CONTINUOUS
370
-3
390
F
  0
LAYER
  5
21D
100
AcDbSymbolTableRecord
100
AcDbLayerTableRecord
  2
A0707015_CAPPELLO-D200_CLUSTE_1
 70
0
 62
7
  6
CONTINUOUS
370
-3
390
F
  0
LAYER
  5
21E
100
AcDbSymbolTableRecord
100
AcDbLayerTableRecord
  2
A0707027_DISCHETTO-MAKROFOL_3
 70
0
 62
7
  6
CONTINUOUS
370
-3
390
F
  0
LAYER
  5
21F
100
AcDbSymbolTableRecord
100
AcDbLayerTableRecord
  2
A0707027_DISCHETTO-MAKROFOL_3_1
 70
0
 62
7
  6
CONTINUOUS
370
-3
390
F
  0
LAYER
  5
220
100
AcDbSymbolTableRecord
100
AcDbLayerTableRecord
  2
A0707032_BLOC-DIST-MOR_NO_MORS_
 70
0
 62
7
  6
CONTINUOUS
370
-3
390
F
  0
LAYER
  5
221
100
AcDbSymbolTableRecord
100
AcDbLayerTableRecord
  2
A0707032_BLOC-DIST-MOR_NO_MOR_1
 70
0
 62
7
  6
CONTINUOUS
370
-3
390
F
  0
LAYER
  5
222
100
AcDbSymbolTableRecord
100
AcDbLayerTableRecord
  2
A0707032_BLOC-DIST-MOR_SOLO_MOR
 70
0
 62
7
  6
CONTINUOUS
370
-3
390
F
  0
LAYER
  5
223
100
AcDbSymbolTableRecord
100
AcDbLayerTableRecord
  2
A0707032_BLOC-DIST-MOR_SOLO_M_1
 70
0
 62
7
  6
CONTINUOUS
370
-3
390
F
  0
LAYER
  5
224
100
AcDbSymbolTableRecord
100
AcDbLayerTableRecord
  2
A0707050_STAFFA-CLUSTER_8
 70
0
 62
7
  6
CONTINUOUS
370
-3
390
F
  0
LAYER
  5
225
100
AcDbSymbolTableRecord
100
AcDbLayerTableRecord
  2
A0707051_COPERTURA-CLUSTER-3_12
 70
0
 62
7
  6
CONTINUOUS
370
-3
390
F
  0
LAYER
  5
226
100
AcDbSymbolTableRecord
100
AcDbLayerTableRecord
  2
A0707052_STAFFA-SOSP-CLUSTER_4
 70
0
 62
7
  6
CONTINUOUS
370
-3
390
F
  0
LAYER
  5
227
100
AcDbSymbolTableRecord
100
AcDbLayerTableRecord
  2
A0707053_CONETTO-BLOC-CLUSTER_1
 70
0
 62
7
  6
CONTINUOUS
370
-3
390
F
  0
LAYER
  5
228
100
AcDbSymbolTableRecord
100
AcDbLayerTableRecord
  2
A0707054_TESTATA-CLUSTER_17
 70
0
 62
7
  6
CONTINUOUS
370
-3
390
F
  0
LAYER
  5
229
100
AcDbSymbolTableRecord
100
AcDbLayerTableRecord
  2
A0707056_TESTATA-PIANA_7
 70
0
 62
7
  6
CONTINUOUS
370
-3
390
F
  0
LAYER
  5
22A
100
AcDbSymbolTableRecord
100
AcDbLayerTableRecord
  2
A070E032_DATI-A07S20-SOSP-CAVOW
 70
0
 62
7
  6
CONTINUOUS
370
-3
390
F
  0
LAYER
  5
22B
100
AcDbSymbolTableRecord
100
AcDbLayerTableRecord
  2
A070E032_DATI-A07S20-SOSP-CAV_1
 70
0
 62
7
  6
CONTINUOUS
370
-3
390
F
  0
LAYER
  5
22C
100
AcDbSymbolTableRecord
100
AcDbLayerTableRecord
  2
ALL_AXES
 70
0
 62
7
  6
CONTINUOUS
370
-3
390
F
  0
LAYER
  5
22D
100
AcDbSymbolTableRecord
100
AcDbLayerTableRecord
  2
ALL_FEATURES
 70
0
 62
7
  6
CONTINUOUS
370
-3
390
F
  0
LAYER
  5
22E
100
AcDbSymbolTableRecord
100
AcDbLayerTableRecord
  2
D9607041_TAPE_DISS_LED_16
 70
0
 62
7
  6
CONTINUOUS
370
-3
390
F
  0
LAYER
  5
22F
100
AcDbSymbolTableRecord
100
AcDbLayerTableRecord
  2
D9607041_TAPE_DISS_LED_16_1
 70
0
 62
7
  6
CONTINUOUS
370
-3
390
F
  0
LAYER
  5
230
100
AcDbSymbolTableRecord
100
AcDbLayerTableRecord
  2
DADO-ESAG-M3-ZINC_22
 70
0
 62
7
  6
CONTINUOUS
370
-3
390
F
  0
LAYER
  5
231
100
AcDbSymbolTableRecord
100
AcDbLayerTableRecord
  2
DADO-ESAG-M3-ZINC_22_1
 70
0
 62
7
  6
CONTINUOUS
370
-3
390
F
  0
LAYER
  5
232
100
AcDbSymbolTableRecord
100
AcDbLayerTableRecord
  2
DADO-ESAG-M3-ZINC_22_2
 70
0
 62
7
  6
CONTINUOUS
370
-3
390
F
  0
LAYER
  5
233
100
AcDbSymbolTableRecord
100
AcDbLayerTableRecord
  2
DADO-ESAG-M3-ZINC_22_3
 70
0
 62
7
  6
CONTINUOUS
370
-3
390
F
  0
LAYER
  5
234
100
AcDbSymbolTableRecord
100
AcDbLayerTableRecord
  2
DADO-ESAG-M3-ZINC_22_4
 70
0
 62
7
  6
CONTINUOUS
370
-3
390
F
  0
LAYER
  5
235
100
AcDbSymbolTableRecord
100
AcDbLayerTableRecord
  2
DADO-ESAG-M3-ZINC_22_5
 70
0
 62
7
  6
CONTINUOUS
370
-3
390
F
  0
LAYER
  5
236
100
AcDbSymbolTableRecord
100
AcDbLayerTableRecord
  2
DADO-ESAG-M3-ZINC_22_6
 70
0
 62
7
  6
CONTINUOUS
370
-3
390
F
  0
LAYER
  5
237
100
AcDbSymbolTableRecord
100
AcDbLayerTableRecord
  2
DADO-ESAG-M3-ZINC_22_7
 70
0
 62
7
  6
CONTINUOUS
370
-3
390
F
  0
LAYER
  5
238
100
AcDbSymbolTableRecord
100
AcDbLayerTableRecord
  2
DIST_STEAB_5015-6-4_4
 70
0
 62
7
  6
CONTINUOUS
370
-3
390
F
  0
LAYER
  5
239
100
AcDbSymbolTableRecord
100
AcDbLayerTableRecord
  2
DIST_STEAB_5015-6-4_4_1
 70
0
 62
7
  6
CONTINUOUS
370
-3
390
F
  0
LAYER
  5
23A
100
AcDbSymbolTableRecord
100
AcDbLayerTableRecord
  2
GRANO_UNI_5923_2-5X3_ZINC_50
 70
0
 62
7
  6
CONTINUOUS
370
-3
390
F
  0
LAYER
  5
23B
100
AcDbSymbolTableRecord
100
AcDbLayerTableRecord
  2
GRANO_UNI_5923_2-5X3_ZINC_50_1
 70
0
 62
7
  6
CONTINUOUS
370
-3
390
F
  0
LAYER
  5
23C
100
AcDbSymbolTableRecord
100
AcDbLayerTableRecord
  2
GRANO_UNI_5923_2-5X3_ZINC_50_2
 70
0
 62
7
  6
CONTINUOUS
370
-3
390
F
  0
LAYER
  5
23D
100
AcDbSymbolTableRecord
100
AcDbLayerTableRecord
  2
GRANO_UNI_5923_2-5X3_ZINC_50_3
 70
0
 62
7
  6
CONTINUOUS
370
-3
390
F
  0
LAYER
  5
23E
100
AcDbSymbolTableRecord
100
AcDbLayerTableRecord
  2
GRANO_UNI_5923_2-5X3_ZINC_50_4
 70
0
 62
7
  6
CONTINUOUS
370
-3
390
F
  0
LAYER
  5
23F
100
AcDbSymbolTableRecord
100
AcDbLayerTableRecord
  2
GRANO_UNI_5923_2-5X3_ZINC_50_5
 70
0
 62
7
  6
CONTINUOUS
370
-3
390
F
  0
LAYER
  5
240
100
AcDbSymbolTableRecord
100
AcDbLayerTableRecord
  2
GRANO_UNI_5923_2-5X3_ZINC_50_6
 70
0
 62
7
  6
CONTINUOUS
370
-3
390
F
  0
LAYER
  5
241
100
AcDbSymbolTableRecord
100
AcDbLayerTableRecord
  2
GRANO_UNI_5923_2-5X3_ZINC_50_7
 70
0
 62
7
  6
CONTINUOUS
370
-3
390
F
  0
LAYER
  5
242
100
AcDbSymbolTableRecord
100
AcDbLayerTableRecord
  2
LED_SLM_1208_L15_2024_G7_927_10
 70
0
 62
7
  6
CONTINUOUS
370
-3
390
F
  0
LAYER
  5
243
100
AcDbSymbolTableRecord
100
AcDbLayerTableRecord
  2
LED_SLM_1208_L15_2024_G7_927__1
 70
0
 62
7
  6
CONTINUOUS
370
-3
390
F
  0
LAYER
  5
244
100
AcDbSymbolTableRecord
100
AcDbLayerTableRecord
  2
MORSETTINO_PA35_NOVIT_8
 70
0
 62
7
  6
CONTINUOUS
370
-3
390
F
  0
LAYER
  5
245
100
AcDbSymbolTableRecord
100
AcDbLayerTableRecord
  2
MORSETTINO_PA35_NOVIT_8_1
 70
0
 62
7
  6
CONTINUOUS
370
-3
390
F
  0
LAYER
  5
246
100
AcDbSymbolTableRecord
100
AcDbLayerTableRecord
  2
MORSETTINO_PA35_NOVIT_8_2
 70
0
 62
7
  6
CONTINUOUS
370
-3
390
F
  0
LAYER
  5
247
100
AcDbSymbolTableRecord
100
AcDbLayerTableRecord
  2
MORSETTINO_PA35_NOVIT_8_3
 70
0
 62
7
  6
CONTINUOUS
370
-3
390
F
  0
LAYER
  5
248
100
AcDbSymbolTableRecord
100
AcDbLayerTableRecord
  2
VITE-TSC-M3X10-ZINC_50
 70
0
 62
7
  6
CONTINUOUS
370
-3
390
F
  0
LAYER
  5
249
100
AcDbSymbolTableRecord
100
AcDbLayerTableRecord
  2
VITE-TSC-M3X10-ZINC_50_1
 70
0
 62
7
  6
CONTINUOUS
370
-3
390
F
  0
LAYER
  5
24A
100
AcDbSymbolTableRecord
100
AcDbLayerTableRecord
  2
VITE-TSC-M3X10-ZINC_50_2
 70
0
 62
7
  6
CONTINUOUS
370
-3
390
F
  0
LAYER
  5
24B
100
AcDbSymbolTableRecord
100
AcDbLayerTableRecord
  2
VITE-TSC-M3X10-ZINC_50_3
 70
0
 62
7
  6
CONTINUOUS
370
-3
390
F
  0
LAYER
  5
24C
100
AcDbSymbolTableRecord
100
AcDbLayerTableRecord
  2
VITE-TSC-M3X10-ZINC_50_4
 70
0
 62
7
  6
CONTINUOUS
370
-3
390
F
  0
LAYER
  5
24D
100
AcDbSymbolTableRecord
100
AcDbLayerTableRecord
  2
VITE-TSC-M3X10-ZINC_50_5
 70
0
 62
7
  6
CONTINUOUS
370
-3
390
F
  0
LAYER
  5
24E
100
AcDbSymbolTableRecord
100
AcDbLayerTableRecord
  2
VITE-TSC-M3X10-ZINC_50_6
 70
0
 62
7
  6
CONTINUOUS
370
-3
390
F
  0
LAYER
  5
24F
100
AcDbSymbolTableRecord
100
AcDbLayerTableRecord
  2
VITE-TSC-M3X10-ZINC_50_7
 70
0
 62
7
  6
CONTINUOUS
370
-3
390
F
  0
LAYER
  5
250
100
AcDbSymbolTableRecord
100
AcDbLayerTableRecord
  2
VITE-TSC-M3X12-ZINC_50
 70
0
 62
7
  6
CONTINUOUS
370
-3
390
F
  0
LAYER
  5
251
100
AcDbSymbolTableRecord
100
AcDbLayerTableRecord
  2
VITE-TSC-M3X12-ZINC_50_1
 70
0
 62
7
  6
CONTINUOUS
370
-3
390
F
  0
LAYER
  5
252
100
AcDbSymbolTableRecord
100
AcDbLayerTableRecord
  2
VITE-TSC-M3X12-ZINC_50_2
 70
0
 62
7
  6
CONTINUOUS
370
-3
390
F
  0
LAYER
  5
253
100
AcDbSymbolTableRecord
100
AcDbLayerTableRecord
  2
VITE-TSC-M3X12-ZINC_50_3
 70
0
 62
7
  6
CONTINUOUS
370
-3
390
F
  0
LAYER
  5
254
100
AcDbSymbolTableRecord
100
AcDbLayerTableRecord
  2
VITE-TSC-M4X16-ZINC_50
 70
0
 62
7
  6
CONTINUOUS
370
-3
390
F
  0
LAYER
  5
255
100
AcDbSymbolTableRecord
100
AcDbLayerTableRecord
  2
VITE-TSC-M4X16-ZINC_50_1
 70
0
 62
7
  6
CONTINUOUS
370
-3
390
F
  0
LAYER
  5
256
100
AcDbSymbolTableRecord
100
AcDbLayerTableRecord
  2
VITE-TSC-M4X16-ZINC_50_2
 70
0
 62
7
  6
CONTINUOUS
370
-3
390
F
  0
LAYER
  5
257
100
AcDbSymbolTableRecord
100
AcDbLayerTableRecord
  2
VITE-TSC-M4X16-ZINC_50_3
 70
0
 62
7
  6
CONTINUOUS
370
-3
390
F
  0
LAYER
  5
258
100
AcDbSymbolTableRecord
100
AcDbLayerTableRecord
  2
VITE-TSC-M4X16-ZINC_50_4
 70
0
 62
7
  6
CONTINUOUS
370
-3
390
F
  0
LAYER
  5
259
100
AcDbSymbolTableRecord
100
AcDbLayerTableRecord
  2
VITE-TSC-M4X16-ZINC_50_5
 70
0
 62
7
  6
CONTINUOUS
370
-3
390
F
  0
LAYER
  5
25A
100
AcDbSymbolTableRecord
100
AcDbLayerTableRecord
  2
VITE-TSC-M4X16-ZINC_50_6
 70
0
 62
7
  6
CONTINUOUS
370
-3
390
F
  0
LAYER
  5
25B
100
AcDbSymbolTableRecord
100
AcDbLayerTableRecord
  2
VITE-TSC-M4X16-ZINC_50_7
 70
0
 62
7
  6
CONTINUOUS
370
-3
390
F
  0
ENDTAB
  0
TABLE
  2
STYLE
  5
3
100
AcDbSymbolTable
 70
1
  0
STYLE
  5
11
100
AcDbSymbolTableRecord
100
AcDbTextStyleTableRecord
  2
STANDARD
 70
0
 40
0.0
 41
1.0
 50
0.0
 71
0
 42
0.2
  3
trium.ttf
  4

1001
ACAD
1000
CG Triumvirate
1071
34
  0
STYLE
  5
25C
100
AcDbSymbolTableRecord
100
AcDbTextStyleTableRecord
  2
TEXTSTYLE_1
 70
0
 40
0.0
 41
0.8
 50
0.0
 71
0
 42
0.2
  3
gdt
  4

  0
ENDTAB
  0
TABLE
  2
VIEW
  5
6
100
AcDbSymbolTable
 70
0
  0
ENDTAB
  0
TABLE
  2
UCS
  5
7
100
AcDbSymbolTable
 70
0
  0
ENDTAB
  0
TABLE
  2
APPID
  5
9
100
AcDbSymbolTable
 70
1
  0
APPID
  5
25D
100
AcDbSymbolTableRecord
100
AcDbRegAppTableRecord
  2
ACAD
 70
0
  0
ENDTAB
  0
TABLE
  2
BLOCK_RECORD
  5
1
100
AcDbSymbolTable
 70
0
  0
BLOCK_RECORD
  5
25E
100
AcDbSymbolTableRecord
100
AcDbBlockTableRecord
  2
*Model_Space
  0
BLOCK_RECORD
  5
25F
100
AcDbSymbolTableRecord
100
AcDbBlockTableRecord
  2
*Paper_Space
  0
BLOCK_RECORD
  5
260
100
AcDbSymbolTableRecord
100
AcDbBlockTableRecord
  2
_FILLED
  0
ENDTAB
  0
TABLE
  2
DIMSTYLE
  5
A
100
AcDbSymbolTable
 70
1
100
AcDbDimStyleTable
 71
0
  0
DIMSTYLE
105
261
100
AcDbSymbolTableRecord
100
AcDbDimStyleTableRecord
  2
STANDARD
 70
0
  3

  4

 40
1.0
 41
4.0
 42
1.0
 43
0.38
 44
1.0
 45
0.0
 46
0.0
 47
0.001
 48
0.001
140
3.0
141
0.09
142
0.0
143
25.4
144
1.0
145
0.0
146
1.0
147
0.625
 71
1
 72
0
 73
0
 74
0
 75
0
 76
0
 77
1
 78
8
 79
2
170
0
171
2
172
0
173
0
174
0
175
0
176
0
177
0
178
0
270
2
179
3
271
3
272
3
273
2
274
2
275
0
280
0
281
0
282
0
283
1
284
8
285
0
286
0
287
3
288
0
340
11
278
46
341
260
342
260
343
260
344
260
  0
ENDTAB
  0
ENDSEC
  0
SECTION
  2
BLOCKS
  0
BLOCK
  5
20
100
AcDbEntity
  8
0
100
AcDbBlockBegin
  2
*Model_Space
 70
0
 10
0.0
 20
0.0
 30
0.0
  3
*Model_Space
  1

  0
ENDBLK
  5
21
100
AcDbEntity
  8
0
100
AcDbBlockEnd
  0
BLOCK
  5
1C
100
AcDbEntity
  8
0
100
AcDbBlockBegin
  2
*Paper_Space
 70
0
 10
0.0
 20
0.0
 30
0.0
  3
*Paper_Space
  1

  0
ENDBLK
  5
1D
100
AcDbEntity
  8
0
100
AcDbBlockEnd
  0
BLOCK
  5
262
100
AcDbEntity
  8
0
100
AcDbBlockBegin
  2
_FILLED
 70
64
 10
0.0
 20
0.0
 30
0.0
  3
_FILLED
  1

  0
SOLID
  5
263
100
AcDbEntity
  8
0
  6
BYBLOCK
 62
0
100
AcDbTrace
 10
0.0
 20
0.0
 30
0.0
 11
-1.0
 21
0.1875
 31
0.0
 12
-1.0
 22
-0.1875
 32
0.0
 13
-1.0
 23
-0.1875
 33
0.0
  0
ENDBLK
  5
264
100
AcDbEntity
  8
0
  6
BYBLOCK
 62
0
100
AcDbBlockEnd
  0
ENDSEC
  0
SECTION
  2
ENTITIES
  0
LINE
  5
265
100
AcDbEntity
  8
0
100
AcDbLine
 62
7
  6
CONTINUOUS
 10
0.0
 20
0.0
 30
0.0
 11
0.0
 21
1260.0
 31
0.0
  0
LINE
  5
266
100
AcDbEntity
  8
0
100
AcDbLine
 62
7
  6
CONTINUOUS
 10
0.0
 20
0.0
 30
0.0
 11
1782.0
 21
0.0
 31
0.0
  0
LINE
  5
267
100
AcDbEntity
  8
0
100
AcDbLine
 62
7
  6
CONTINUOUS
 10
0.0
 20
1260.0
 30
0.0
 11
1782.0
 21
1260.0
 31
0.0
  0
LINE
  5
268
100
AcDbEntity
  8
0
100
AcDbLine
 62
7
  6
CONTINUOUS
 10
1782.0
 20
0.0
 30
0.0
 11
1782.0
 21
1260.0
 31
0.0
  0
LINE
  5
269
100
AcDbEntity
  8
0
100
AcDbLine
 62
7
  6
CONTINUOUS
 10
113.8151146385
 20
905.3954148236
 30
0.0
 11
113.8151146385
 21
906.5954148236
 31
0.0
  0
LINE
  5
26A
100
AcDbEntity
  8
0
100
AcDbLine
 62
7
  6
CONTINUOUS
 10
124.7151146385
 20
927.3954148236
 30
0.0
 11
124.7151146385
 21
928.5954148236
 31
0.0
  0
LINE
  5
26B
100
AcDbEntity
  8
0
100
AcDbLine
 62
9
  6
CONTINUOUS
 10
143.8151146385
 20
928.5954148236
 30
0.0
 11
143.8151146385
 21
927.3954148236
 31
0.0
  0
LINE
  5
26C
100
AcDbEntity
  8
0
100
AcDbLine
 62
9
  6
CONTINUOUS
 10
143.8151146385
 20
906.5954148236
 30
0.0
 11
143.8151146385
 21
905.3954148236
 31
0.0
  0
LINE
  5
26D
100
AcDbEntity
  8
0
100
AcDbLine
 62
7
  6
CONTINUOUS
 10
165.3151146385
 20
931.5954148236
 30
0.0
 11
165.3151146385
 21
908.5954148236
 31
0.0
  0
LINE
  5
26E
100
AcDbEntity
  8
0
100
AcDbLine
 62
7
  6
CONTINUOUS
 10
174.3151146385
 20
926.1954148236
 30
0.0
 11
174.3151146385
 21
928.5954148236
 31
0.0
  0
LINE
  5
26F
100
AcDbEntity
  8
0
100
AcDbLine
 62
7
  6
CONTINUOUS
 10
179.8151146385
 20
908.5954148236
 30
0.0
 11
179.8151146385
 21
906.5954148236
 31
0.0
  0
LINE
  5
270
100
AcDbEntity
  8
0
100
AcDbLine
 62
7
  6
CONTINUOUS
 10
185.7151146385
 20
915.2954148236
 30
0.0
 11
185.7151146385
 21
913.0954148236
 31
0.0
  0
LINE
  5
271
100
AcDbEntity
  8
0
100
AcDbLine
 62
7
  6
CONTINUOUS
 10
188.9151146385
 20
913.0954148236
 30
0.0
 11
188.9151146385
 21
915.2954148236
 31
0.0
  0
LINE
  5
272
100
AcDbEntity
  8
0
100
AcDbLine
 62
9
  6
CONTINUOUS
 10
199.3151146385
 20
928.5954148236
 30
0.0
 11
199.3151146385
 21
931.5954148236
 31
0.0
  0
LINE
  5
273
100
AcDbEntity
  8
0
100
AcDbLine
 62
7
  6
CONTINUOUS
 10
204.3151146385
 20
931.0954148236
 30
0.0
 11
204.3151146385
 21
928.5954148236
 31
0.0
  0
LINE
  5
274
100
AcDbEntity
  8
0
100
AcDbLine
 62
7
  6
CONTINUOUS
 10
1202.4681469498
 20
128.711666786
 30
0.0
 11
1143.8151146385
 21
114.5545088799
 31
0.0
  0
LINE
  5
275
100
AcDbEntity
  8
0
100
AcDbLine
 62
7
  6
CONTINUOUS
 10
657.3254548599
 20
105.3954148236
 30
0.0
 11
730.304774417
 21
105.3954148236
 31
0.0
  0
LINE
  5
276
100
AcDbEntity
  8
0
100
AcDbLine
 62
7
  6
CONTINUOUS
 10
1207.3254548599
 20
105.3954148236
 30
0.0
 11
1280.304774417
 21
105.3954148236
 31
0.0
  0
LINE
  5
277
100
AcDbEntity
  8
0
100
AcDbLine
 62
9
  6
CONTINUOUS
 10
656.3812196628
 20
106.0661430626
 30
0.0
 11
731.2490096141
 21
106.0661430626
 31
0.0
  0
LINE
  5
278
100
AcDbEntity
  8
0
100
AcDbLine
 62
9
  6
CONTINUOUS
 10
1206.3812196628
 20
106.0661430626
 30
0.0
 11
1281.2490096141
 21
106.0661430626
 31
0.0
  0
LINE
  5
279
100
AcDbEntity
  8
0
100
AcDbLine
 62
7
  6
CONTINUOUS
 10
594.1670643834
 20
113.0963828987
 30
0.0
 11
793.4631648935
 21
113.0963828987
 31
0.0
  0
LINE
  5
27A
100
AcDbEntity
  8
0
100
AcDbLine
 62
7
  6
CONTINUOUS
 10
1144.1670643834
 20
113.0963828987
 30
0.0
 11
1343.4631648935
 21
113.0963828987
 31
0.0
  0
LINE
  5
27B
100
AcDbEntity
  8
0
100
AcDbLine
 62
7
  6
CONTINUOUS
 10
593.8151146385
 20
114.5545088799
 30
0.0
 11
793.8151146385
 21
114.5545088799
 31
0.0
  0
LINE
  5
27C
100
AcDbEntity
  8
0
100
AcDbLine
 62
7
  6
CONTINUOUS
 10
1143.8151146385
 20
114.5545088799
 30
0.0
 11
1343.8151146385
 21
114.5545088799
 31
0.0
  0
LINE
  5
27D
100
AcDbEntity
  8
0
100
AcDbLine
 62
7
  6
CONTINUOUS
 10
697.4247913654
 20
900.0005834572
 30
0.0
 11
713.9493086023
 21
904.8323136435
 31
0.0
  0
LINE
  5
27E
100
AcDbEntity
  8
0
100
AcDbLine
 62
7
  6
CONTINUOUS
 10
652.4681469498
 20
128.711666786
 30
0.0
 11
593.8151146385
 21
114.5545088799
 31
0.0
  0
LINE
  5
27F
100
AcDbEntity
  8
0
100
AcDbLine
 62
9
  6
CONTINUOUS
 10
1285.1620823271
 20
128.711666786
 30
0.0
 11
1202.4681469498
 21
128.711666786
 31
0.0
  0
LINE
  5
280
100
AcDbEntity
  8
0
100
AcDbLine
 62
9
  6
CONTINUOUS
 10
735.1620823271
 20
128.711666786
 30
0.0
 11
652.4681469498
 21
128.711666786
 31
0.0
  0
LINE
  5
281
100
AcDbEntity
  8
0
100
AcDbLine
 62
7
  6
CONTINUOUS
 10
1284.4581828372
 20
128.7954148236
 30
0.0
 11
1203.1720464397
 21
128.7954148236
 31
0.0
  0
LINE
  5
282
100
AcDbEntity
  8
0
100
AcDbLine
 62
7
  6
CONTINUOUS
 10
734.4581828372
 20
128.7954148236
 30
0.0
 11
653.1720464397
 21
128.7954148236
 31
0.0
  0
LINE
  5
283
100
AcDbEntity
  8
0
100
AcDbLine
 62
7
  6
CONTINUOUS
 10
1248.8151146385
 20
130.7954148236
 30
0.0
 11
1238.8151146385
 21
130.7954148236
 31
0.0
  0
LINE
  5
284
100
AcDbEntity
  8
0
100
AcDbLine
 62
7
  6
CONTINUOUS
 10
698.8151146385
 20
130.7954148236
 30
0.0
 11
688.8151146385
 21
130.7954148236
 31
0.0
  0
LINE
  5
285
100
AcDbEntity
  8
0
100
AcDbLine
 62
7
  6
CONTINUOUS
 10
1246.8151146385
 20
158.7954148236
 30
0.0
 11
1240.8151146385
 21
158.7954148236
 31
0.0
  0
LINE
  5
286
100
AcDbEntity
  8
0
100
AcDbLine
 62
7
  6
CONTINUOUS
 10
696.8151146385
 20
158.7954148236
 30
0.0
 11
690.8151146385
 21
158.7954148236
 31
0.0
  0
LINE
  5
287
100
AcDbEntity
  8
0
100
AcDbLine
 62
7
  6
CONTINUOUS
 10
735.1620823271
 20
128.711666786
 30
0.0
 11
793.8151146385
 21
114.5545088799
 31
0.0
  0
LINE
  5
288
100
AcDbEntity
  8
0
100
AcDbLine
 62
7
  6
CONTINUOUS
 10
692.3651146385
 20
189.9954148236
 30
0.0
 11
692.9856449994
 21
189.9954148236
 31
0.0
  0
LINE
  5
289
100
AcDbEntity
  8
0
100
AcDbLine
 62
7
  6
CONTINUOUS
 10
692.9864948898
 20
189.995414678
 30
0.0
 11
695.2651146385
 21
189.9954148236
 31
0.0
  0
LINE
  5
28A
100
AcDbEntity
  8
0
100
AcDbLine
 62
7
  6
CONTINUOUS
 10
1242.3651146385
 20
189.9954148236
 30
0.0
 11
1242.9856449994
 21
189.9954148236
 31
0.0
  0
LINE
  5
28B
100
AcDbEntity
  8
0
100
AcDbLine
 62
7
  6
CONTINUOUS
 10
1242.9864948898
 20
189.995414678
 30
0.0
 11
1245.2651146385
 21
189.9954148236
 31
0.0
  0
LINE
  5
28C
100
AcDbEntity
  8
0
100
AcDbLine
 62
7
  6
CONTINUOUS
 10
1247.4247913654
 20
900.0005834572
 30
0.0
 11
1263.9493086023
 21
904.8323136435
 31
0.0
  0
LINE
  5
28D
100
AcDbEntity
  8
0
100
AcDbLine
 62
7
  6
CONTINUOUS
 10
1285.1620823271
 20
128.711666786
 30
0.0
 11
1343.8151146385
 21
114.5545088799
 31
0.0
  0
LINE
  5
28E
100
AcDbEntity
  8
0
100
AcDbLine
 62
7
  6
CONTINUOUS
 10
656.3812196628
 20
106.0661430626
 30
0.0
 11
653.9296488482
 21
113.0963828987
 31
0.0
  0
LINE
  5
28F
100
AcDbEntity
  8
0
100
AcDbLine
 62
7
  6
CONTINUOUS
 10
594.1670643834
 20
113.0963828987
 30
0.0
 11
593.8151146385
 21
114.5545088799
 31
0.0
  0
LINE
  5
290
100
AcDbEntity
  8
0
100
AcDbLine
 62
7
  6
CONTINUOUS
 10
673.4651146385
 20
905.1202569998
 30
0.0
 11
673.4651146385
 21
905.3954148236
 31
0.0
  0
LINE
  5
291
100
AcDbEntity
  8
0
100
AcDbLine
 62
7
  6
CONTINUOUS
 10
688.8151146385
 20
130.7954148236
 30
0.0
 11
688.8151146385
 21
128.7954148236
 31
0.0
  0
LINE
  5
292
100
AcDbEntity
  8
0
100
AcDbLine
 62
7
  6
CONTINUOUS
 10
690.5651146385
 20
899.5206778634
 30
0.0
 11
690.5651146385
 21
891.8954148236
 31
0.0
  0
LINE
  5
293
100
AcDbEntity
  8
0
100
AcDbLine
 62
7
  6
CONTINUOUS
 10
690.8151146385
 20
130.7954148236
 30
0.0
 11
690.8151146385
 21
158.7954148236
 31
0.0
  0
LINE
  5
294
100
AcDbEntity
  8
0
100
AcDbLine
 62
7
  6
CONTINUOUS
 10
691.8151146385
 20
145.7954148236
 30
0.0
 11
691.8151146385
 21
139.7954148236
 31
0.0
  0
LINE
  5
295
100
AcDbEntity
  8
0
100
AcDbLine
 62
7
  6
CONTINUOUS
 10
692.2151146385
 20
915.2954148236
 30
0.0
 11
692.2151146385
 21
913.0954148236
 31
0.0
  0
LINE
  5
296
100
AcDbEntity
  8
0
100
AcDbLine
 62
6
  6
CONTINUOUS
 10
692.3651146385
 20
138.4182965785
 30
0.0
 11
692.3651146385
 21
147.1728458348
 31
0.0
  0
LINE
  5
297
100
AcDbEntity
  8
0
100
AcDbLine
 62
6
  6
CONTINUOUS
 10
692.3651146385
 20
158.7954148236
 30
0.0
 11
692.3651146385
 21
189.9954148236
 31
0.0
  0
LINE
  5
298
100
AcDbEntity
  8
0
100
AcDbLine
 62
6
  6
CONTINUOUS
 10
695.2651146385
 20
138.4179836033
 30
0.0
 11
695.2651146385
 21
147.1725304419
 31
0.0
  0
LINE
  5
299
100
AcDbEntity
  8
0
100
AcDbLine
 62
6
  6
CONTINUOUS
 10
695.2651146385
 20
158.7954148236
 30
0.0
 11
695.2651146385
 21
189.9954148236
 31
0.0
  0
LINE
  5
29A
100
AcDbEntity
  8
0
100
AcDbLine
 62
7
  6
CONTINUOUS
 10
695.4151146385
 20
913.0954148236
 30
0.0
 11
695.4151146385
 21
915.2954148236
 31
0.0
  0
LINE
  5
29B
100
AcDbEntity
  8
0
100
AcDbLine
 62
7
  6
CONTINUOUS
 10
695.8151146385
 20
139.7954148236
 30
0.0
 11
695.8151146385
 21
145.7954148236
 31
0.0
  0
LINE
  5
29C
100
AcDbEntity
  8
0
100
AcDbLine
 62
7
  6
CONTINUOUS
 10
696.8151146385
 20
130.7954148236
 30
0.0
 11
696.8151146385
 21
158.7954148236
 31
0.0
  0
LINE
  5
29D
100
AcDbEntity
  8
0
100
AcDbLine
 62
7
  6
CONTINUOUS
 10
697.0651146385
 20
899.5206778634
 30
0.0
 11
697.0651146385
 21
891.8954148236
 31
0.0
  0
LINE
  5
29E
100
AcDbEntity
  8
0
100
AcDbLine
 62
7
  6
CONTINUOUS
 10
698.8151146385
 20
130.7954148236
 30
0.0
 11
698.8151146385
 21
128.7954148236
 31
0.0
  0
LINE
  5
29F
100
AcDbEntity
  8
0
100
AcDbLine
 62
7
  6
CONTINUOUS
 10
714.1651146385
 20
905.1202569998
 30
0.0
 11
714.1651146385
 21
905.3954148236
 31
0.0
  0
LINE
  5
2A0
100
AcDbEntity
  8
0
100
AcDbLine
 62
7
  6
CONTINUOUS
 10
731.2490096141
 20
106.0661430626
 30
0.0
 11
733.7005804287
 21
113.0963828987
 31
0.0
  0
LINE
  5
2A1
100
AcDbEntity
  8
0
100
AcDbLine
 62
7
  6
CONTINUOUS
 10
793.4631648935
 20
113.0963828987
 30
0.0
 11
793.8151146385
 21
114.5545088799
 31
0.0
  0
LINE
  5
2A2
100
AcDbEntity
  8
0
100
AcDbLine
 62
7
  6
CONTINUOUS
 10
1206.3812196628
 20
106.0661430626
 30
0.0
 11
1203.9296488482
 21
113.0963828987
 31
0.0
  0
LINE
  5
2A3
100
AcDbEntity
  8
0
100
AcDbLine
 62
7
  6
CONTINUOUS
 10
1144.1670643834
 20
113.0963828987
 30
0.0
 11
1143.8151146385
 21
114.5545088799
 31
0.0
  0
LINE
  5
2A4
100
AcDbEntity
  8
0
100
AcDbLine
 62
7
  6
CONTINUOUS
 10
690.5651146385
 20
891.8954148236
 30
0.0
 11
697.0651146385
 21
891.8954148236
 31
0.0
  0
LINE
  5
2A5
100
AcDbEntity
  8
0
100
AcDbLine
 62
7
  6
CONTINUOUS
 10
1240.5651146385
 20
891.8954148236
 30
0.0
 11
1247.0651146385
 21
891.8954148236
 31
0.0
  0
LINE
  5
2A6
100
AcDbEntity
  8
0
100
AcDbLine
 62
9
  6
CONTINUOUS
 10
690.5651146385
 20
899.5206778634
 30
0.0
 11
697.0651146385
 21
899.5206778634
 31
0.0
  0
LINE
  5
2A7
100
AcDbEntity
  8
0
100
AcDbLine
 62
9
  6
CONTINUOUS
 10
1240.5651146385
 20
899.5206778634
 30
0.0
 11
1247.0651146385
 21
899.5206778634
 31
0.0
  0
LINE
  5
2A8
100
AcDbEntity
  8
0
100
AcDbLine
 62
9
  6
CONTINUOUS
 10
1247.4247913654
 20
900.0005834572
 30
0.0
 11
1240.2054379115
 21
900.0005834572
 31
0.0
  0
LINE
  5
2A9
100
AcDbEntity
  8
0
100
AcDbLine
 62
9
  6
CONTINUOUS
 10
690.2054379115
 20
900.0005834572
 30
0.0
 11
697.4247913654
 21
900.0005834572
 31
0.0
  0
LINE
  5
2AA
100
AcDbEntity
  8
0
100
AcDbLine
 62
9
  6
CONTINUOUS
 10
1263.9493086023
 20
904.8323136435
 30
0.0
 11
1223.6809206746
 21
904.8323136435
 31
0.0
  0
LINE
  5
2AB
100
AcDbEntity
  8
0
100
AcDbLine
 62
9
  6
CONTINUOUS
 10
713.9493086023
 20
904.8323136435
 30
0.0
 11
673.6809206746
 21
904.8323136435
 31
0.0
  0
LINE
  5
2AC
100
AcDbEntity
  8
0
100
AcDbLine
 62
9
  6
CONTINUOUS
 10
1264.1651146385
 20
905.1202569998
 30
0.0
 11
1223.4651146385
 21
905.1202569998
 31
0.0
  0
LINE
  5
2AD
100
AcDbEntity
  8
0
100
AcDbLine
 62
9
  6
CONTINUOUS
 10
714.1651146385
 20
905.1202569998
 30
0.0
 11
673.4651146385
 21
905.1202569998
 31
0.0
  0
LINE
  5
2AE
100
AcDbEntity
  8
0
100
AcDbLine
 62
7
  6
CONTINUOUS
 10
113.8151146385
 20
905.3954148236
 30
0.0
 11
1273.8151146385
 21
905.3954148236
 31
0.0
  0
LINE
  5
2AF
100
AcDbEntity
  8
0
100
AcDbLine
 62
7
  6
CONTINUOUS
 10
1273.8151146385
 20
906.5954148236
 30
0.0
 11
113.8151146385
 21
906.5954148236
 31
0.0
  0
LINE
  5
2B0
100
AcDbEntity
  8
0
100
AcDbLine
 62
7
  6
CONTINUOUS
 10
1256.8054956952
 20
907.3954148236
 30
0.0
 11
1255.4233014047
 21
907.3954148236
 31
0.0
  0
LINE
  5
2B1
100
AcDbEntity
  8
0
100
AcDbLine
 62
7
  6
CONTINUOUS
 10
1232.2069278722
 20
907.3954148236
 30
0.0
 11
1230.8247335817
 21
907.3954148236
 31
0.0
  0
LINE
  5
2B2
100
AcDbEntity
  8
0
100
AcDbLine
 62
7
  6
CONTINUOUS
 10
165.3151146385
 20
908.5954148236
 30
0.0
 11
1265.3151146385
 21
908.5954148236
 31
0.0
  0
LINE
  5
2B3
100
AcDbEntity
  8
0
100
AcDbLine
 62
7
  6
CONTINUOUS
 10
690.2054379115
 20
900.0005834572
 30
0.0
 11
673.6809206746
 21
904.8323136435
 31
0.0
  0
LINE
  5
2B4
100
AcDbEntity
  8
0
100
AcDbLine
 62
9
  6
CONTINUOUS
 10
1213.3151146385
 20
926.1954148236
 30
0.0
 11
174.3151146385
 21
926.1954148236
 31
0.0
  0
LINE
  5
2B5
100
AcDbEntity
  8
0
100
AcDbLine
 62
7
  6
CONTINUOUS
 10
1265.3151146385
 20
927.3954148236
 30
0.0
 11
1223.8151146385
 21
927.3954148236
 31
0.0
  0
LINE
  5
2B6
100
AcDbEntity
  8
0
100
AcDbLine
 62
7
  6
CONTINUOUS
 10
124.7151146385
 20
927.3954148236
 30
0.0
 11
165.3151146385
 21
927.3954148236
 31
0.0
  0
LINE
  5
2B7
100
AcDbEntity
  8
0
100
AcDbLine
 62
7
  6
CONTINUOUS
 10
1248.2151146385
 20
927.5954148236
 30
0.0
 11
1239.4151146385
 21
927.5954148236
 31
0.0
  0
LINE
  5
2B8
100
AcDbEntity
  8
0
100
AcDbLine
 62
9
  6
CONTINUOUS
 10
1238.9151146385
 20
928.0954148236
 30
0.0
 11
1248.7151146385
 21
928.0954148236
 31
0.0
  0
LINE
  5
2B9
100
AcDbEntity
  8
0
100
AcDbLine
 62
7
  6
CONTINUOUS
 10
165.3151146385
 20
928.5954148236
 30
0.0
 11
124.7151146385
 21
928.5954148236
 31
0.0
  0
LINE
  5
2BA
100
AcDbEntity
  8
0
100
AcDbLine
 62
7
  6
CONTINUOUS
 10
174.3151146385
 20
928.5954148236
 30
0.0
 11
1213.3151146385
 21
928.5954148236
 31
0.0
  0
LINE
  5
2BB
100
AcDbEntity
  8
0
100
AcDbLine
 62
7
  6
CONTINUOUS
 10
1223.3151146385
 20
928.5954148236
 30
0.0
 11
1261.3151146385
 21
928.5954148236
 31
0.0
  0
LINE
  5
2BC
100
AcDbEntity
  8
0
100
AcDbLine
 62
9
  6
CONTINUOUS
 10
1223.3151146385
 20
931.0954148236
 30
0.0
 11
1183.3151146385
 21
931.0954148236
 31
0.0
  0
LINE
  5
2BD
100
AcDbEntity
  8
0
100
AcDbLine
 62
9
  6
CONTINUOUS
 10
204.3151146385
 20
931.0954148236
 30
0.0
 11
165.3151146385
 21
931.0954148236
 31
0.0
  0
LINE
  5
2BE
100
AcDbEntity
  8
0
100
AcDbLine
 62
7
  6
CONTINUOUS
 10
165.3151146385
 20
931.5954148236
 30
0.0
 11
203.8151146385
 21
931.5954148236
 31
0.0
  0
LINE
  5
2BF
100
AcDbEntity
  8
0
100
AcDbLine
 62
7
  6
CONTINUOUS
 10
1183.8151146385
 20
931.5954148236
 30
0.0
 11
1261.3151146385
 21
931.5954148236
 31
0.0
  0
LINE
  5
2C0
100
AcDbEntity
  8
0
100
AcDbLine
 62
7
  6
CONTINUOUS
 10
1183.3151146385
 20
928.5954148236
 30
0.0
 11
1183.3151146385
 21
931.0954148236
 31
0.0
  0
LINE
  5
2C1
100
AcDbEntity
  8
0
100
AcDbLine
 62
9
  6
CONTINUOUS
 10
1188.3151146385
 20
931.5954148236
 30
0.0
 11
1188.3151146385
 21
928.5954148236
 31
0.0
  0
LINE
  5
2C2
100
AcDbEntity
  8
0
100
AcDbLine
 62
7
  6
CONTINUOUS
 10
1198.7151146385
 20
915.2954148236
 30
0.0
 11
1198.7151146385
 21
913.0954148236
 31
0.0
  0
LINE
  5
2C3
100
AcDbEntity
  8
0
100
AcDbLine
 62
7
  6
CONTINUOUS
 10
1201.9151146385
 20
913.0954148236
 30
0.0
 11
1201.9151146385
 21
915.2954148236
 31
0.0
  0
LINE
  5
2C4
100
AcDbEntity
  8
0
100
AcDbLine
 62
7
  6
CONTINUOUS
 10
1207.8151146385
 20
906.5954148236
 30
0.0
 11
1207.8151146385
 21
908.5954148236
 31
0.0
  0
LINE
  5
2C5
100
AcDbEntity
  8
0
100
AcDbLine
 62
7
  6
CONTINUOUS
 10
1213.3151146385
 20
928.5954148236
 30
0.0
 11
1213.3151146385
 21
926.1954148236
 31
0.0
  0
LINE
  5
2C6
100
AcDbEntity
  8
0
100
AcDbLine
 62
7
  6
CONTINUOUS
 10
1223.3151146385
 20
927.8954148236
 30
0.0
 11
1223.3151146385
 21
931.5954148236
 31
0.0
  0
LINE
  5
2C7
100
AcDbEntity
  8
0
100
AcDbLine
 62
7
  6
CONTINUOUS
 10
1223.4651146385
 20
905.1202569998
 30
0.0
 11
1223.4651146385
 21
905.3954148236
 31
0.0
  0
LINE
  5
2C8
100
AcDbEntity
  8
0
100
AcDbLine
 62
9
  6
CONTINUOUS
 10
1223.8151146385
 20
931.5954148236
 30
0.0
 11
1223.8151146385
 21
928.5954148236
 31
0.0
  0
LINE
  5
2C9
100
AcDbEntity
  8
0
100
AcDbLine
 62
7
  6
CONTINUOUS
 10
1229.7151146388
 20
906.5954148236
 30
0.0
 11
1229.7151146388
 21
908.5954148236
 31
0.0
  0
LINE
  5
2CA
100
AcDbEntity
  8
0
100
AcDbLine
 62
7
  6
CONTINUOUS
 10
1230.8247335817
 20
908.5954148236
 30
0.0
 11
1230.8247335817
 21
907.3954148236
 31
0.0
  0
LINE
  5
2CB
100
AcDbEntity
  8
0
100
AcDbLine
 62
7
  6
CONTINUOUS
 10
1232.2069278722
 20
907.3954148236
 30
0.0
 11
1232.2069278722
 21
908.5954148236
 31
0.0
  0
LINE
  5
2CC
100
AcDbEntity
  8
0
100
AcDbLine
 62
7
  6
CONTINUOUS
 10
1238.8151146385
 20
130.7954148236
 30
0.0
 11
1238.8151146385
 21
128.7954148236
 31
0.0
  0
LINE
  5
2CD
100
AcDbEntity
  8
0
100
AcDbLine
 62
7
  6
CONTINUOUS
 10
1238.9151146385
 20
928.0954148236
 30
0.0
 11
1238.9151146385
 21
928.5954148236
 31
0.0
  0
LINE
  5
2CE
100
AcDbEntity
  8
0
100
AcDbLine
 62
7
  6
CONTINUOUS
 10
1240.5651146385
 20
899.5206778634
 30
0.0
 11
1240.5651146385
 21
891.8954148236
 31
0.0
  0
LINE
  5
2CF
100
AcDbEntity
  8
0
100
AcDbLine
 62
7
  6
CONTINUOUS
 10
1240.7151146385
 20
908.5954148236
 30
0.0
 11
1240.7151146385
 21
906.5954148236
 31
0.0
  0
LINE
  5
2D0
100
AcDbEntity
  8
0
100
AcDbLine
 62
7
  6
CONTINUOUS
 10
1240.8151146385
 20
130.7954148236
 30
0.0
 11
1240.8151146385
 21
158.7954148236
 31
0.0
  0
LINE
  5
2D1
100
AcDbEntity
  8
0
100
AcDbLine
 62
7
  6
CONTINUOUS
 10
1241.8151146385
 20
145.7954148236
 30
0.0
 11
1241.8151146385
 21
139.7954148236
 31
0.0
  0
LINE
  5
2D2
100
AcDbEntity
  8
0
100
AcDbLine
 62
6
  6
CONTINUOUS
 10
1242.3651146385
 20
138.4182965785
 30
0.0
 11
1242.3651146385
 21
147.1728458348
 31
0.0
  0
LINE
  5
2D3
100
AcDbEntity
  8
0
100
AcDbLine
 62
6
  6
CONTINUOUS
 10
1242.3651146385
 20
158.7954148236
 30
0.0
 11
1242.3651146385
 21
189.9954148236
 31
0.0
  0
LINE
  5
2D4
100
AcDbEntity
  8
0
100
AcDbLine
 62
9
  6
CONTINUOUS
 10
1243.8151146385
 20
905.3954148236
 30
0.0
 11
1243.8151146385
 21
906.5954148236
 31
0.0
  0
LINE
  5
2D5
100
AcDbEntity
  8
0
100
AcDbLine
 62
9
  6
CONTINUOUS
 10
1243.8151146385
 20
908.5954148236
 30
0.0
 11
1243.8151146385
 21
927.3954148236
 31
0.0
  0
LINE
  5
2D6
100
AcDbEntity
  8
0
100
AcDbLine
 62
9
  6
CONTINUOUS
 10
1243.8151146385
 20
928.5954148236
 30
0.0
 11
1243.8151146385
 21
931.5954148236
 31
0.0
  0
LINE
  5
2D7
100
AcDbEntity
  8
0
100
AcDbLine
 62
6
  6
CONTINUOUS
 10
1245.2651146385
 20
138.4179836033
 30
0.0
 11
1245.2651146385
 21
147.1725304419
 31
0.0
  0
LINE
  5
2D8
100
AcDbEntity
  8
0
100
AcDbLine
 62
6
  6
CONTINUOUS
 10
1245.2651146385
 20
158.7954148236
 30
0.0
 11
1245.2651146385
 21
189.9954148236
 31
0.0
  0
LINE
  5
2D9
100
AcDbEntity
  8
0
100
AcDbLine
 62
7
  6
CONTINUOUS
 10
1245.8151146385
 20
139.7954148236
 30
0.0
 11
1245.8151146385
 21
145.7954148236
 31
0.0
  0
LINE
  5
2DA
100
AcDbEntity
  8
0
100
AcDbLine
 62
7
  6
CONTINUOUS
 10
1246.8151146385
 20
130.7954148236
 30
0.0
 11
1246.8151146385
 21
158.7954148236
 31
0.0
  0
LINE
  5
2DB
100
AcDbEntity
  8
0
100
AcDbLine
 62
7
  6
CONTINUOUS
 10
1246.9151146385
 20
906.5954148236
 30
0.0
 11
1246.9151146385
 21
908.5954148236
 31
0.0
  0
LINE
  5
2DC
100
AcDbEntity
  8
0
100
AcDbLine
 62
7
  6
CONTINUOUS
 10
1247.0651146385
 20
899.5206778634
 30
0.0
 11
1247.0651146385
 21
891.8954148236
 31
0.0
  0
LINE
  5
2DD
100
AcDbEntity
  8
0
100
AcDbLine
 62
7
  6
CONTINUOUS
 10
1248.7151146385
 20
928.0954148236
 30
0.0
 11
1248.7151146385
 21
928.5954148236
 31
0.0
  0
LINE
  5
2DE
100
AcDbEntity
  8
0
100
AcDbLine
 62
7
  6
CONTINUOUS
 10
1248.8151146385
 20
130.7954148236
 30
0.0
 11
1248.8151146385
 21
128.7954148236
 31
0.0
  0
LINE
  5
2DF
100
AcDbEntity
  8
0
100
AcDbLine
 62
7
  6
CONTINUOUS
 10
1255.4233014047
 20
908.5954148236
 30
0.0
 11
1255.4233014047
 21
907.3954148236
 31
0.0
  0
LINE
  5
2E0
100
AcDbEntity
  8
0
100
AcDbLine
 62
7
  6
CONTINUOUS
 10
1256.8054956952
 20
907.3954148236
 30
0.0
 11
1256.8054956952
 21
908.5954148236
 31
0.0
  0
LINE
  5
2E1
100
AcDbEntity
  8
0
100
AcDbLine
 62
7
  6
CONTINUOUS
 10
1257.9151146381
 20
908.5954148236
 30
0.0
 11
1257.9151146381
 21
906.5954148236
 31
0.0
  0
LINE
  5
2E2
100
AcDbEntity
  8
0
100
AcDbLine
 62
7
  6
CONTINUOUS
 10
1261.3151146385
 20
928.5954148236
 30
0.0
 11
1261.3151146385
 21
931.5954148236
 31
0.0
  0
LINE
  5
2E3
100
AcDbEntity
  8
0
100
AcDbLine
 62
7
  6
CONTINUOUS
 10
1264.1651146385
 20
905.1202569998
 30
0.0
 11
1264.1651146385
 21
905.3954148236
 31
0.0
  0
LINE
  5
2E4
100
AcDbEntity
  8
0
100
AcDbLine
 62
7
  6
CONTINUOUS
 10
1265.3151146385
 20
908.5954148236
 30
0.0
 11
1265.3151146385
 21
927.3954148236
 31
0.0
  0
LINE
  5
2E5
100
AcDbEntity
  8
0
100
AcDbLine
 62
7
  6
CONTINUOUS
 10
1273.8151146385
 20
905.3954148236
 30
0.0
 11
1273.8151146385
 21
906.5954148236
 31
0.0
  0
LINE
  5
2E6
100
AcDbEntity
  8
0
100
AcDbLine
 62
7
  6
CONTINUOUS
 10
1240.2054379115
 20
900.0005834572
 30
0.0
 11
1223.6809206746
 21
904.8323136435
 31
0.0
  0
LINE
  5
2E7
100
AcDbEntity
  8
0
100
AcDbLine
 62
7
  6
CONTINUOUS
 10
1343.4631648935
 20
113.0963828987
 30
0.0
 11
1343.8151146385
 21
114.5545088799
 31
0.0
  0
LINE
  5
2E8
100
AcDbEntity
  8
0
100
AcDbLine
 62
7
  6
CONTINUOUS
 10
1281.2490096141
 20
106.0661430626
 30
0.0
 11
1283.7005804287
 21
113.0963828987
 31
0.0
  0
LINE
  5
2E9
100
AcDbEntity
  8
0
100
AcDbLine
 62
7
  6
CONTINUOUS
 10
143.8151146385
 20
1070.0949150534
 30
0.0
 11
598.4216381966
 21
1070.0949150534
 31
0.0
  0
LINE
  5
2EA
100
AcDbEntity
  8
0
100
AcDbLine
 62
7
  6
CONTINUOUS
 10
789.2085910803
 20
1070.0949150534
 30
0.0
 11
1148.4216381966
 21
1070.0949150534
 31
0.0
  0
LINE
  5
2EB
100
AcDbEntity
  8
0
100
AcDbLine
 62
7
  6
CONTINUOUS
 10
1148.4216386449
 20
1130.0949150534
 30
0.0
 11
789.208590632
 21
1130.0949150534
 31
0.0
  0
LINE
  5
2EC
100
AcDbEntity
  8
0
100
AcDbLine
 62
7
  6
CONTINUOUS
 10
598.4216386449
 20
1130.0949150534
 30
0.0
 11
143.8151146385
 21
1130.0949150534
 31
0.0
  0
LINE
  5
2ED
100
AcDbEntity
  8
0
100
AcDbLine
 62
7
  6
CONTINUOUS
 10
1545.0028562342
 20
105.3954148236
 30
0.0
 11
1617.9821757913
 21
105.3954148236
 31
0.0
  0
LINE
  5
2EE
100
AcDbEntity
  8
0
100
AcDbLine
 62
9
  6
CONTINUOUS
 10
1544.0586210371
 20
106.0661430626
 30
0.0
 11
1618.9264109884
 21
106.0661430626
 31
0.0
  0
LINE
  5
2EF
100
AcDbEntity
  8
0
100
AcDbLine
 62
7
  6
CONTINUOUS
 10
1585.1021927397
 20
900.0005834572
 30
0.0
 11
1601.6267099766
 21
904.8323136435
 31
0.0
  0
LINE
  5
2F0
100
AcDbEntity
  8
0
100
AcDbLine
 62
7
  6
CONTINUOUS
 10
1681.1405662678
 20
113.0963828987
 30
0.0
 11
1481.8444657577
 21
113.0963828987
 31
0.0
  0
LINE
  5
2F1
100
AcDbEntity
  8
0
100
AcDbLine
 62
7
  6
CONTINUOUS
 10
1681.4925160128
 20
114.5545088799
 30
0.0
 11
1481.4925160128
 21
114.5545088799
 31
0.0
  0
LINE
  5
2F2
100
AcDbEntity
  8
0
100
AcDbLine
 62
9
  6
CONTINUOUS
 10
1622.8394837014
 20
128.711666786
 30
0.0
 11
1540.1455483241
 21
128.711666786
 31
0.0
  0
LINE
  5
2F3
100
AcDbEntity
  8
0
100
AcDbLine
 62
7
  6
CONTINUOUS
 10
1540.849447814
 20
128.7954148236
 30
0.0
 11
1622.1355842115
 21
128.7954148236
 31
0.0
  0
LINE
  5
2F4
100
AcDbEntity
  8
0
100
AcDbLine
 62
7
  6
CONTINUOUS
 10
1586.4925160128
 20
130.7954148236
 30
0.0
 11
1576.4925160128
 21
130.7954148236
 31
0.0
  0
LINE
  5
2F5
100
AcDbEntity
  8
0
100
AcDbLine
 62
7
  6
CONTINUOUS
 10
1481.4925160128
 20
114.5545088799
 30
0.0
 11
1540.1455483241
 21
128.711666786
 31
0.0
  0
LINE
  5
2F6
100
AcDbEntity
  8
0
100
AcDbLine
 62
7
  6
CONTINUOUS
 10
1584.4925160128
 20
158.7954148236
 30
0.0
 11
1578.4925160128
 21
158.7954148236
 31
0.0
  0
LINE
  5
2F7
100
AcDbEntity
  8
0
100
AcDbLine
 62
7
  6
CONTINUOUS
 10
1681.4925160128
 20
114.5545088799
 30
0.0
 11
1622.8394837014
 21
128.711666786
 31
0.0
  0
LINE
  5
2F8
100
AcDbEntity
  8
0
100
AcDbLine
 62
7
  6
CONTINUOUS
 10
1580.0425160128
 20
189.9954148236
 30
0.0
 11
1582.6818351952
 21
189.9954148236
 31
0.0
  0
LINE
  5
2F9
100
AcDbEntity
  8
0
100
AcDbLine
 62
7
  6
CONTINUOUS
 10
1582.6824274851
 20
189.995414678
 30
0.0
 11
1582.9425160128
 21
189.9954148236
 31
0.0
  0
LINE
  5
2FA
100
AcDbEntity
  8
0
100
AcDbLine
 62
7
  6
CONTINUOUS
 10
1481.8444657577
 20
113.0963828987
 30
0.0
 11
1481.4925160128
 21
114.5545088799
 31
0.0
  0
LINE
  5
2FB
100
AcDbEntity
  8
0
100
AcDbLine
 62
7
  6
CONTINUOUS
 10
1544.0586210371
 20
106.0661430626
 30
0.0
 11
1541.6070502225
 21
113.0963828987
 31
0.0
  0
LINE
  5
2FC
100
AcDbEntity
  8
0
100
AcDbLine
 62
7
  6
CONTINUOUS
 10
1551.4925160128
 20
905.3954148236
 30
0.0
 11
1551.4925160128
 21
906.5954148236
 31
0.0
  0
LINE
  5
2FD
100
AcDbEntity
  8
0
100
AcDbLine
 62
7
  6
CONTINUOUS
 10
1559.9925160128
 20
931.0954148236
 30
0.0
 11
1559.9925160128
 21
908.5954148236
 31
0.0
  0
LINE
  5
2FE
100
AcDbEntity
  8
0
100
AcDbLine
 62
7
  6
CONTINUOUS
 10
1561.1425160128
 20
905.3954148236
 30
0.0
 11
1561.1425160128
 21
905.1202569998
 31
0.0
  0
LINE
  5
2FF
100
AcDbEntity
  8
0
100
AcDbLine
 62
7
  6
CONTINUOUS
 10
1561.9925160128
 20
931.5954148236
 30
0.0
 11
1561.9925160128
 21
927.5954148236
 31
0.0
  0
LINE
  5
300
100
AcDbEntity
  8
0
100
AcDbLine
 62
7
  6
CONTINUOUS
 10
1562.3925160128
 20
927.3954148236
 30
0.0
 11
1562.3925160128
 21
928.5954148236
 31
0.0
  0
LINE
  5
301
100
AcDbEntity
  8
0
100
AcDbLine
 62
7
  6
CONTINUOUS
 10
1566.8163448499
 20
907.7954148236
 30
0.0
 11
1566.8163448499
 21
908.5954148236
 31
0.0
  0
LINE
  5
302
100
AcDbEntity
  8
0
100
AcDbLine
 62
7
  6
CONTINUOUS
 10
1567.4925160128
 20
907.7954148236
 30
0.0
 11
1567.4925160128
 21
906.5954148236
 31
0.0
  0
LINE
  5
303
100
AcDbEntity
  8
0
100
AcDbLine
 62
7
  6
CONTINUOUS
 10
1571.9925160128
 20
908.5954148236
 30
0.0
 11
1571.9925160128
 21
907.3954148236
 31
0.0
  0
LINE
  5
304
100
AcDbEntity
  8
0
100
AcDbLine
 62
7
  6
CONTINUOUS
 10
1573.9925160128
 20
907.3954148236
 30
0.0
 11
1573.9925160128
 21
908.5954148236
 31
0.0
  0
LINE
  5
305
100
AcDbEntity
  8
0
100
AcDbLine
 62
7
  6
CONTINUOUS
 10
1576.3748993791
 20
908.7732758567
 30
0.0
 11
1576.3748993794
 21
906.5954148236
 31
0.0
  0
LINE
  5
306
100
AcDbEntity
  8
0
100
AcDbLine
 62
7
  6
CONTINUOUS
 10
1576.4925160128
 20
913.5954148236
 30
0.0
 11
1576.4925160128
 21
909.0954148236
 31
0.0
  0
LINE
  5
307
100
AcDbEntity
  8
0
100
AcDbLine
 62
7
  6
CONTINUOUS
 10
1576.4925160128
 20
128.7954148236
 30
0.0
 11
1576.4925160128
 21
130.7954148236
 31
0.0
  0
LINE
  5
308
100
AcDbEntity
  8
0
100
AcDbLine
 62
7
  6
CONTINUOUS
 10
1578.2425160128
 20
891.8954148236
 30
0.0
 11
1578.2425160128
 21
899.5206778634
 31
0.0
  0
LINE
  5
309
100
AcDbEntity
  8
0
100
AcDbLine
 62
7
  6
CONTINUOUS
 10
1578.4925160128
 20
158.7954148236
 30
0.0
 11
1578.4925160128
 21
130.7954148236
 31
0.0
  0
LINE
  5
30A
100
AcDbEntity
  8
0
100
AcDbLine
 62
6
  6
CONTINUOUS
 10
1580.0425160128
 20
158.7954148236
 30
0.0
 11
1580.0425160128
 21
189.9954148236
 31
0.0
  0
LINE
  5
30B
100
AcDbEntity
  8
0
100
AcDbLine
 62
6
  6
CONTINUOUS
 10
1582.9425160128
 20
158.7954148236
 30
0.0
 11
1582.9425160128
 21
189.9954148236
 31
0.0
  0
LINE
  5
30C
100
AcDbEntity
  8
0
100
AcDbLine
 62
7
  6
CONTINUOUS
 10
1583.7285839903
 20
145.7954148236
 30
0.0
 11
1583.7285839903
 21
139.7954148236
 31
0.0
  0
LINE
  5
30D
100
AcDbEntity
  8
0
100
AcDbLine
 62
7
  6
CONTINUOUS
 10
1584.4925160128
 20
158.7954148236
 30
0.0
 11
1584.4925160128
 21
147.7954148236
 31
0.0
  0
LINE
  5
30E
100
AcDbEntity
  8
0
100
AcDbLine
 62
7
  6
CONTINUOUS
 10
1584.4925160128
 20
137.7954148236
 30
0.0
 11
1584.4925160128
 21
130.7954148236
 31
0.0
  0
LINE
  5
30F
100
AcDbEntity
  8
0
100
AcDbLine
 62
7
  6
CONTINUOUS
 10
1584.7425160128
 20
891.8954148236
 30
0.0
 11
1584.7425160128
 21
899.5206778634
 31
0.0
  0
LINE
  5
310
100
AcDbEntity
  8
0
100
AcDbLine
 62
7
  6
CONTINUOUS
 10
1586.4925160128
 20
913.5954148236
 30
0.0
 11
1586.4925160128
 21
909.0954148236
 31
0.0
  0
LINE
  5
311
100
AcDbEntity
  8
0
100
AcDbLine
 62
7
  6
CONTINUOUS
 10
1586.4925160128
 20
128.7954148236
 30
0.0
 11
1586.4925160128
 21
130.7954148236
 31
0.0
  0
LINE
  5
312
100
AcDbEntity
  8
0
100
AcDbLine
 62
7
  6
CONTINUOUS
 10
1586.6101326461
 20
906.5954148236
 30
0.0
 11
1586.6101326464
 21
908.7732774317
 31
0.0
  0
LINE
  5
313
100
AcDbEntity
  8
0
100
AcDbLine
 62
7
  6
CONTINUOUS
 10
1588.9925160128
 20
908.5954148236
 30
0.0
 11
1588.9925160128
 21
907.3954148236
 31
0.0
  0
LINE
  5
314
100
AcDbEntity
  8
0
100
AcDbLine
 62
7
  6
CONTINUOUS
 10
1590.9925160128
 20
907.3954148236
 30
0.0
 11
1590.9925160128
 21
908.5954148236
 31
0.0
  0
LINE
  5
315
100
AcDbEntity
  8
0
100
AcDbLine
 62
7
  6
CONTINUOUS
 10
1595.4925160128
 20
907.7954148236
 30
0.0
 11
1595.4925160128
 21
906.5954148236
 31
0.0
  0
LINE
  5
316
100
AcDbEntity
  8
0
100
AcDbLine
 62
7
  6
CONTINUOUS
 10
1596.1686871756
 20
908.5954148236
 30
0.0
 11
1596.1686871756
 21
907.7954148236
 31
0.0
  0
LINE
  5
317
100
AcDbEntity
  8
0
100
AcDbLine
 62
7
  6
CONTINUOUS
 10
1600.5925160128
 20
928.5954148236
 30
0.0
 11
1600.5925160128
 21
927.3954148236
 31
0.0
  0
LINE
  5
318
100
AcDbEntity
  8
0
100
AcDbLine
 62
7
  6
CONTINUOUS
 10
1600.9925160128
 20
927.5954148236
 30
0.0
 11
1600.9925160128
 21
931.5954148236
 31
0.0
  0
LINE
  5
319
100
AcDbEntity
  8
0
100
AcDbLine
 62
7
  6
CONTINUOUS
 10
1601.8425160128
 20
905.3954148236
 30
0.0
 11
1601.8425160128
 21
905.1202569998
 31
0.0
  0
LINE
  5
31A
100
AcDbEntity
  8
0
100
AcDbLine
 62
7
  6
CONTINUOUS
 10
1602.9925160128
 20
931.0954148236
 30
0.0
 11
1602.9925160128
 21
908.5954148236
 31
0.0
  0
LINE
  5
31B
100
AcDbEntity
  8
0
100
AcDbLine
 62
7
  6
CONTINUOUS
 10
1611.4925160128
 20
906.5954148236
 30
0.0
 11
1611.4925160128
 21
905.3954148236
 31
0.0
  0
LINE
  5
31C
100
AcDbEntity
  8
0
100
AcDbLine
 62
7
  6
CONTINUOUS
 10
1618.9264109884
 20
106.0661430626
 30
0.0
 11
1621.377981803
 21
113.0963828987
 31
0.0
  0
LINE
  5
31D
100
AcDbEntity
  8
0
100
AcDbLine
 62
7
  6
CONTINUOUS
 10
1681.1405662678
 20
113.0963828987
 30
0.0
 11
1681.4925160128
 21
114.5545088799
 31
0.0
  0
LINE
  5
31E
100
AcDbEntity
  8
0
100
AcDbLine
 62
7
  6
CONTINUOUS
 10
1577.8828392858
 20
900.0005834572
 30
0.0
 11
1561.3583220489
 21
904.8323136435
 31
0.0
  0
LINE
  5
31F
100
AcDbEntity
  8
0
100
AcDbLine
 62
7
  6
CONTINUOUS
 10
1578.2425160128
 20
891.8954148236
 30
0.0
 11
1584.7425160128
 21
891.8954148236
 31
0.0
  0
LINE
  5
320
100
AcDbEntity
  8
0
100
AcDbLine
 62
9
  6
CONTINUOUS
 10
1578.2425160128
 20
899.5206778634
 30
0.0
 11
1584.7425160128
 21
899.5206778634
 31
0.0
  0
LINE
  5
321
100
AcDbEntity
  8
0
100
AcDbLine
 62
9
  6
CONTINUOUS
 10
1577.8828392858
 20
900.0005834572
 30
0.0
 11
1585.1021927397
 21
900.0005834572
 31
0.0
  0
LINE
  5
322
100
AcDbEntity
  8
0
100
AcDbLine
 62
9
  6
CONTINUOUS
 10
1601.6267099766
 20
904.8323136435
 30
0.0
 11
1561.3583220489
 21
904.8323136435
 31
0.0
  0
LINE
  5
323
100
AcDbEntity
  8
0
100
AcDbLine
 62
9
  6
CONTINUOUS
 10
1601.8425160128
 20
905.1202569998
 30
0.0
 11
1561.1425160128
 21
905.1202569998
 31
0.0
  0
LINE
  5
324
100
AcDbEntity
  8
0
100
AcDbLine
 62
7
  6
CONTINUOUS
 10
1551.4925160128
 20
905.3954148236
 30
0.0
 11
1611.4925160128
 21
905.3954148236
 31
0.0
  0
LINE
  5
325
100
AcDbEntity
  8
0
100
AcDbLine
 62
7
  6
CONTINUOUS
 10
1611.4925160128
 20
906.5954148236
 30
0.0
 11
1551.4925160128
 21
906.5954148236
 31
0.0
  0
LINE
  5
326
100
AcDbEntity
  8
0
100
AcDbLine
 62
7
  6
CONTINUOUS
 10
1590.9925160128
 20
907.3954148236
 30
0.0
 11
1588.9925160128
 21
907.3954148236
 31
0.0
  0
LINE
  5
327
100
AcDbEntity
  8
0
100
AcDbLine
 62
7
  6
CONTINUOUS
 10
1573.9925160128
 20
907.3954148236
 30
0.0
 11
1571.9925160128
 21
907.3954148236
 31
0.0
  0
LINE
  5
328
100
AcDbEntity
  8
0
100
AcDbLine
 62
7
  6
CONTINUOUS
 10
1599.0925160128
 20
907.7954148236
 30
0.0
 11
1595.4925160128
 21
907.7954148236
 31
0.0
  0
LINE
  5
329
100
AcDbEntity
  8
0
100
AcDbLine
 62
7
  6
CONTINUOUS
 10
1563.8925160128
 20
907.7954148236
 30
0.0
 11
1567.4925160128
 21
907.7954148236
 31
0.0
  0
LINE
  5
32A
100
AcDbEntity
  8
0
100
AcDbLine
 62
7
  6
CONTINUOUS
 10
1559.9925160128
 20
908.5954148236
 30
0.0
 11
1575.9925160128
 21
908.5954148236
 31
0.0
  0
LINE
  5
32B
100
AcDbEntity
  8
0
100
AcDbLine
 62
7
  6
CONTINUOUS
 10
1586.9925160128
 20
908.5954148236
 30
0.0
 11
1602.9925160128
 21
908.5954148236
 31
0.0
  0
LINE
  5
32C
100
AcDbEntity
  8
0
100
AcDbLine
 62
7
  6
CONTINUOUS
 10
1586.4925160128
 20
910.3954148236
 30
0.0
 11
1576.4925160128
 21
910.3954148236
 31
0.0
  0
LINE
  5
32D
100
AcDbEntity
  8
0
100
AcDbLine
 62
7
  6
CONTINUOUS
 10
1562.3925160128
 20
927.3954148236
 30
0.0
 11
1600.5925160128
 21
927.3954148236
 31
0.0
  0
LINE
  5
32E
100
AcDbEntity
  8
0
100
AcDbLine
 62
7
  6
CONTINUOUS
 10
1561.9925160128
 20
927.5954148236
 30
0.0
 11
1562.3925160128
 21
927.5954148236
 31
0.0
  0
LINE
  5
32F
100
AcDbEntity
  8
0
100
AcDbLine
 62
7
  6
CONTINUOUS
 10
1600.5925160128
 20
927.5954148236
 30
0.0
 11
1600.9925160128
 21
927.5954148236
 31
0.0
  0
LINE
  5
330
100
AcDbEntity
  8
0
100
AcDbLine
 62
7
  6
CONTINUOUS
 10
1561.9925160128
 20
928.5954148236
 30
0.0
 11
1600.9925160128
 21
928.5954148236
 31
0.0
  0
LINE
  5
331
100
AcDbEntity
  8
0
100
AcDbLine
 62
7
  6
CONTINUOUS
 10
1560.4925160128
 20
931.5954148236
 30
0.0
 11
1602.4925160128
 21
931.5954148236
 31
0.0
  0
ARC
  5
332
100
AcDbEntity
  8
0
100
AcDbCircle
 62
7
  6
CONTINUOUS
 10
734.4581828372
 20
125.7954148236
 30
0.0
 40
3.0
100
AcDbArc
 50
76.43
 51
90.0
  0
ARC
  5
333
100
AcDbEntity
  8
0
100
AcDbCircle
 62
7
  6
CONTINUOUS
 10
653.1720464397
 20
125.7954148236
 30
0.0
 40
3.0
100
AcDbArc
 50
90.0
 51
103.57
  0
ARC
  5
334
100
AcDbEntity
  8
0
100
AcDbCircle
 62
7
  6
CONTINUOUS
 10
693.8151146385
 20
145.7954148236
 30
0.0
 40
2.0
100
AcDbArc
 50
0.0
 51
180.0
  0
ARC
  5
335
100
AcDbEntity
  8
0
100
AcDbCircle
 62
7
  6
CONTINUOUS
 10
693.8151146385
 20
139.7954148236
 30
0.0
 40
2.0
100
AcDbArc
 50
180.0
 51
360.0
  0
ARC
  5
336
100
AcDbEntity
  8
0
100
AcDbCircle
 62
7
  6
CONTINUOUS
 10
730.304774417
 20
106.3954148236
 30
0.0
 40
1.0
100
AcDbArc
 50
270.0
 51
340.7754196795
  0
ARC
  5
337
100
AcDbEntity
  8
0
100
AcDbCircle
 62
7
  6
CONTINUOUS
 10
657.3254548599
 20
106.3954148236
 30
0.0
 40
1.0
100
AcDbArc
 50
199.2245803205
 51
270.0
  0
CIRCLE
  5
338
100
AcDbEntity
  8
0
100
AcDbCircle
 62
7
  6
CONTINUOUS
 10
244.3151146385
 20
915.2954148236
 30
0.0
 40
1.75
  0
ARC
  5
339
100
AcDbEntity
  8
0
100
AcDbCircle
 62
7
  6
CONTINUOUS
 10
187.3151146385
 20
913.0954148236
 30
0.0
 40
1.6
100
AcDbArc
 50
180.0
 51
360.0
  0
ARC
  5
33A
100
AcDbEntity
  8
0
100
AcDbCircle
 62
7
  6
CONTINUOUS
 10
187.3151146385
 20
915.2954148236
 30
0.0
 40
1.6
100
AcDbArc
 50
0.0
 51
180.0
  0
ARC
  5
33B
100
AcDbEntity
  8
0
100
AcDbCircle
 62
7
  6
CONTINUOUS
 10
693.8151146385
 20
913.0954148236
 30
0.0
 40
1.6
100
AcDbArc
 50
180.0
 51
360.0
  0
ARC
  5
33C
100
AcDbEntity
  8
0
100
AcDbCircle
 62
7
  6
CONTINUOUS
 10
693.8151146385
 20
915.2954148236
 30
0.0
 40
1.6
100
AcDbArc
 50
0.0
 51
180.0
  0
ARC
  5
33D
100
AcDbEntity
  8
0
100
AcDbCircle
 62
7
  6
CONTINUOUS
 10
693.8151146385
 20
911.0954148236
 30
0.0
 40
1.35
100
AcDbArc
 50
37.1709716542
 51
142.8290254464
  0
CIRCLE
  5
33E
100
AcDbEntity
  8
0
100
AcDbCircle
 62
7
  6
CONTINUOUS
 10
693.8151146385
 20
915.2954148236
 30
0.0
 40
1.35
  0
CIRCLE
  5
33F
100
AcDbEntity
  8
0
100
AcDbCircle
 62
7
  6
CONTINUOUS
 10
187.3151146385
 20
915.2954148236
 30
0.0
 40
1.35
  0
ARC
  5
340
100
AcDbEntity
  8
0
100
AcDbCircle
 62
7
  6
CONTINUOUS
 10
187.3151146385
 20
911.0954148236
 30
0.0
 40
1.35
100
AcDbArc
 50
37.1709716542
 51
142.8290254464
  0
ARC
  5
341
100
AcDbEntity
  8
0
100
AcDbCircle
 62
7
  6
CONTINUOUS
 10
690.0651146385
 20
899.5206778634
 30
0.0
 40
0.5
100
AcDbArc
 50
0.0
 51
73.7012036185
  0
ARC
  5
342
100
AcDbEntity
  8
0
100
AcDbCircle
 62
7
  6
CONTINUOUS
 10
203.8151146385
 20
931.0954148236
 30
0.0
 40
0.5
100
AcDbArc
 50
0.0
 51
90.0
  0
ARC
  5
343
100
AcDbEntity
  8
0
100
AcDbCircle
 62
7
  6
CONTINUOUS
 10
697.5651146385
 20
899.5206778634
 30
0.0
 40
0.5
100
AcDbArc
 50
106.2987963815
 51
180.0
  0
ARC
  5
344
100
AcDbEntity
  8
0
100
AcDbCircle
 62
7
  6
CONTINUOUS
 10
673.7651146385
 20
905.1202569998
 30
0.0
 40
0.3
100
AcDbArc
 50
180.0
 51
253.7012036182
  0
ARC
  5
345
100
AcDbEntity
  8
0
100
AcDbCircle
 62
7
  6
CONTINUOUS
 10
713.8651146385
 20
905.1202569998
 30
0.0
 40
0.3
100
AcDbArc
 50
286.2987963818
 51
360.0
  0
ARC
  5
346
100
AcDbEntity
  8
0
100
AcDbCircle
 62
7
  6
CONTINUOUS
 10
1284.4581828372
 20
125.7954148236
 30
0.0
 40
3.0
100
AcDbArc
 50
76.43
 51
90.0
  0
ARC
  5
347
100
AcDbEntity
  8
0
100
AcDbCircle
 62
7
  6
CONTINUOUS
 10
1203.1720464397
 20
125.7954148236
 30
0.0
 40
3.0
100
AcDbArc
 50
90.0
 51
103.57
  0
ARC
  5
348
100
AcDbEntity
  8
0
100
AcDbCircle
 62
7
  6
CONTINUOUS
 10
1243.8151146385
 20
139.7954148236
 30
0.0
 40
2.0
100
AcDbArc
 50
180.0
 51
360.0
  0
ARC
  5
349
100
AcDbEntity
  8
0
100
AcDbCircle
 62
7
  6
CONTINUOUS
 10
1243.8151146385
 20
145.7954148236
 30
0.0
 40
2.0
100
AcDbArc
 50
0.0
 51
180.0
  0
ARC
  5
34A
100
AcDbEntity
  8
0
100
AcDbCircle
 62
7
  6
CONTINUOUS
 10
1280.304774417
 20
106.3954148236
 30
0.0
 40
1.0
100
AcDbArc
 50
270.0
 51
340.7754196795
  0
ARC
  5
34B
100
AcDbEntity
  8
0
100
AcDbCircle
 62
7
  6
CONTINUOUS
 10
1207.3254548599
 20
106.3954148236
 30
0.0
 40
1.0
100
AcDbArc
 50
199.2245803205
 51
270.0
  0
CIRCLE
  5
34C
100
AcDbEntity
  8
0
100
AcDbCircle
 62
7
  6
CONTINUOUS
 10
1143.3151146385
 20
915.2954148236
 30
0.0
 40
1.75
  0
ARC
  5
34D
100
AcDbEntity
  8
0
100
AcDbCircle
 62
7
  6
CONTINUOUS
 10
1200.3151146385
 20
913.0954148236
 30
0.0
 40
1.6
100
AcDbArc
 50
180.0
 51
360.0
  0
ARC
  5
34E
100
AcDbEntity
  8
0
100
AcDbCircle
 62
7
  6
CONTINUOUS
 10
1200.3151146385
 20
915.2954148236
 30
0.0
 40
1.6
100
AcDbArc
 50
0.0
 51
180.0
  0
CIRCLE
  5
34F
100
AcDbEntity
  8
0
100
AcDbCircle
 62
7
  6
CONTINUOUS
 10
1200.3151146385
 20
915.2954148236
 30
0.0
 40
1.35
  0
ARC
  5
350
100
AcDbEntity
  8
0
100
AcDbCircle
 62
7
  6
CONTINUOUS
 10
1200.3151146385
 20
911.0954148236
 30
0.0
 40
1.35
100
AcDbArc
 50
37.1709716541
 51
142.8290254464
  0
ARC
  5
351
100
AcDbEntity
  8
0
100
AcDbCircle
 62
7
  6
CONTINUOUS
 10
1240.0651146385
 20
899.5206778634
 30
0.0
 40
0.5
100
AcDbArc
 50
0.0
 51
73.7012036184
  0
ARC
  5
352
100
AcDbEntity
  8
0
100
AcDbCircle
 62
7
  6
CONTINUOUS
 10
1239.4151146385
 20
928.0954148236
 30
0.0
 40
0.5
100
AcDbArc
 50
180.0
 51
270.0
  0
ARC
  5
353
100
AcDbEntity
  8
0
100
AcDbCircle
 62
7
  6
CONTINUOUS
 10
1248.2151146385
 20
928.0954148236
 30
0.0
 40
0.5
100
AcDbArc
 50
270.0
 51
360.0
  0
ARC
  5
354
100
AcDbEntity
  8
0
100
AcDbCircle
 62
7
  6
CONTINUOUS
 10
1183.8151146385
 20
931.0954148236
 30
0.0
 40
0.5
100
AcDbArc
 50
90.0
 51
180.0
  0
ARC
  5
355
100
AcDbEntity
  8
0
100
AcDbCircle
 62
7
  6
CONTINUOUS
 10
1223.8151146385
 20
927.8954148236
 30
0.0
 40
0.5
100
AcDbArc
 50
180.0
 51
270.0
  0
ARC
  5
356
100
AcDbEntity
  8
0
100
AcDbCircle
 62
7
  6
CONTINUOUS
 10
1247.5651146385
 20
899.5206778634
 30
0.0
 40
0.5
100
AcDbArc
 50
106.2987963815
 51
180.0
  0
ARC
  5
357
100
AcDbEntity
  8
0
100
AcDbCircle
 62
7
  6
CONTINUOUS
 10
1263.8651146385
 20
905.1202569998
 30
0.0
 40
0.3
100
AcDbArc
 50
286.2987963819
 51
360.0
  0
ARC
  5
358
100
AcDbEntity
  8
0
100
AcDbCircle
 62
7
  6
CONTINUOUS
 10
1223.7651146385
 20
905.1202569998
 30
0.0
 40
0.3
100
AcDbArc
 50
180.0
 51
253.7012036181
  0
CIRCLE
  5
359
100
AcDbEntity
  8
0
100
AcDbCircle
 62
7
  6
CONTINUOUS
 10
1243.8151146385
 20
1100.0949150534
 30
0.0
 40
100.0
  0
CIRCLE
  5
35A
100
AcDbEntity
  8
0
100
AcDbCircle
 62
7
  6
CONTINUOUS
 10
693.8151146385
 20
1100.0949150534
 30
0.0
 40
100.0
  0
CIRCLE
  5
35B
100
AcDbEntity
  8
0
100
AcDbCircle
 62
7
  6
CONTINUOUS
 10
1243.8151146385
 20
1100.0949150534
 30
0.0
 40
99.648050255
  0
CIRCLE
  5
35C
100
AcDbEntity
  8
0
100
AcDbCircle
 62
7
  6
CONTINUOUS
 10
693.8151146385
 20
1100.0949150534
 30
0.0
 40
99.648050255
  0
CIRCLE
  5
35D
100
AcDbEntity
  8
0
100
AcDbCircle
 62
7
  6
CONTINUOUS
 10
1243.8151146385
 20
1100.0949150534
 30
0.0
 40
43.7961119406
  0
CIRCLE
  5
35E
100
AcDbEntity
  8
0
100
AcDbCircle
 62
7
  6
CONTINUOUS
 10
693.8151146385
 20
1100.0949150534
 30
0.0
 40
43.7961119406
  0
CIRCLE
  5
35F
100
AcDbEntity
  8
0
100
AcDbCircle
 62
9
  6
CONTINUOUS
 10
1243.8151146385
 20
1100.0949150534
 30
0.0
 40
43.7682295391
  0
CIRCLE
  5
360
100
AcDbEntity
  8
0
100
AcDbCircle
 62
9
  6
CONTINUOUS
 10
693.8151146385
 20
1100.0949150534
 30
0.0
 40
43.7682295391
  0
CIRCLE
  5
361
100
AcDbEntity
  8
0
100
AcDbCircle
 62
9
  6
CONTINUOUS
 10
1243.8151146385
 20
1100.0949150534
 30
0.0
 40
37.4338949756
  0
CIRCLE
  5
362
100
AcDbEntity
  8
0
100
AcDbCircle
 62
9
  6
CONTINUOUS
 10
693.8151146385
 20
1100.0949150534
 30
0.0
 40
37.4338949756
  0
CIRCLE
  5
363
100
AcDbEntity
  8
0
100
AcDbCircle
 62
9
  6
CONTINUOUS
 10
693.8151146385
 20
1100.0949150534
 30
0.0
 40
36.4896597786
  0
CIRCLE
  5
364
100
AcDbEntity
  8
0
100
AcDbCircle
 62
9
  6
CONTINUOUS
 10
1243.8151146385
 20
1100.0949150534
 30
0.0
 40
36.4896597786
  0
ARC
  5
365
100
AcDbEntity
  8
0
100
AcDbCircle
 62
7
  6
CONTINUOUS
 10
143.8151146385
 20
1100.0949150534
 30
0.0
 40
30.0
100
AcDbArc
 50
90.0
 51
270.0
  0
CIRCLE
  5
366
100
AcDbEntity
  8
0
100
AcDbCircle
 62
7
  6
CONTINUOUS
 10
1243.8151146385
 20
1100.0949150534
 30
0.0
 40
29.4
  0
CIRCLE
  5
367
100
AcDbEntity
  8
0
100
AcDbCircle
 62
7
  6
CONTINUOUS
 10
693.8151146385
 20
1100.0949150534
 30
0.0
 40
29.4
  0
CIRCLE
  5
368
100
AcDbEntity
  8
0
100
AcDbCircle
 62
7
  6
CONTINUOUS
 10
143.8151146385
 20
1100.0949150534
 30
0.0
 40
15.25
  0
CIRCLE
  5
369
100
AcDbEntity
  8
0
100
AcDbCircle
 62
7
  6
CONTINUOUS
 10
143.8151146385
 20
1100.0949150534
 30
0.0
 40
5.0
  0
ARC
  5
36A
100
AcDbEntity
  8
0
100
AcDbCircle
 62
7
  6
CONTINUOUS
 10
1581.4925160128
 20
913.5954148236
 30
0.0
 40
5.0
100
AcDbArc
 50
0.0
 51
180.0
  0
ARC
  5
36B
100
AcDbEntity
  8
0
100
AcDbCircle
 62
7
  6
CONTINUOUS
 10
1622.1355842115
 20
125.7954148236
 30
0.0
 40
3.0
100
AcDbArc
 50
76.4300000002
 51
90.0
  0
ARC
  5
36C
100
AcDbEntity
  8
0
100
AcDbCircle
 62
7
  6
CONTINUOUS
 10
1540.849447814
 20
125.7954148236
 30
0.0
 40
3.0
100
AcDbArc
 50
90.0
 51
103.5699999998
  0
ARC
  5
36D
100
AcDbEntity
  8
0
100
AcDbCircle
 62
7
  6
CONTINUOUS
 10
1600.5925160128
 20
926.1954148236
 30
0.0
 40
2.4
100
AcDbArc
 50
80.4059317731
 51
90.0
  0
ARC
  5
36E
100
AcDbEntity
  8
0
100
AcDbCircle
 62
7
  6
CONTINUOUS
 10
1562.3925160128
 20
926.1954148236
 30
0.0
 40
2.4
100
AcDbArc
 50
90.0
 51
99.5940682269
  0
ARC
  5
36F
100
AcDbEntity
  8
0
100
AcDbCircle
 62
7
  6
CONTINUOUS
 10
1599.0925160128
 20
908.9954148236
 30
0.0
 40
2.4
100
AcDbArc
 50
270.0
 51
350.4057451534
  0
ARC
  5
370
100
AcDbEntity
  8
0
100
AcDbCircle
 62
7
  6
CONTINUOUS
 10
1563.8925160128
 20
908.9954148236
 30
0.0
 40
2.4
100
AcDbArc
 50
189.5942578384
 51
270.0
  0
ARC
  5
371
100
AcDbEntity
  8
0
100
AcDbCircle
 62
7
  6
CONTINUOUS
 10
1599.0925160128
 20
908.9954148236
 30
0.0
 40
1.2
100
AcDbArc
 50
270.0
 51
340.5283382523
  0
ARC
  5
372
100
AcDbEntity
  8
0
100
AcDbCircle
 62
7
  6
CONTINUOUS
 10
1563.8925160128
 20
908.9954148236
 30
0.0
 40
1.2
100
AcDbArc
 50
199.4716605058
 51
270.0
  0
ARC
  5
373
100
AcDbEntity
  8
0
100
AcDbCircle
 62
7
  6
CONTINUOUS
 10
1545.0028562342
 20
106.3954148236
 30
0.0
 40
1.0
100
AcDbArc
 50
199.2245803205
 51
270.0
  0
ARC
  5
374
100
AcDbEntity
  8
0
100
AcDbCircle
 62
7
  6
CONTINUOUS
 10
1617.9821757913
 20
106.3954148236
 30
0.0
 40
1.0
100
AcDbArc
 50
270.0
 51
340.7754196795
  0
ARC
  5
375
100
AcDbEntity
  8
0
100
AcDbCircle
 62
7
  6
CONTINUOUS
 10
1585.2425160128
 20
899.5206778634
 30
0.0
 40
0.5
100
AcDbArc
 50
106.2987963816
 51
180.0
  0
ARC
  5
376
100
AcDbEntity
  8
0
100
AcDbCircle
 62
7
  6
CONTINUOUS
 10
1560.4925160128
 20
931.0954148236
 30
0.0
 40
0.5
100
AcDbArc
 50
90.0
 51
180.0
  0
ARC
  5
377
100
AcDbEntity
  8
0
100
AcDbCircle
 62
7
  6
CONTINUOUS
 10
1575.9925160128
 20
909.0954148236
 30
0.0
 40
0.5
100
AcDbArc
 50
270.0
 51
360.0
  0
ARC
  5
378
100
AcDbEntity
  8
0
100
AcDbCircle
 62
7
  6
CONTINUOUS
 10
1586.9925160128
 20
909.0954148236
 30
0.0
 40
0.5
100
AcDbArc
 50
180.0
 51
270.0
  0
ARC
  5
379
100
AcDbEntity
  8
0
100
AcDbCircle
 62
7
  6
CONTINUOUS
 10
1602.4925160128
 20
931.0954148236
 30
0.0
 40
0.5
100
AcDbArc
 50
0.0
 51
90.0
  0
ARC
  5
37A
100
AcDbEntity
  8
0
100
AcDbCircle
 62
7
  6
CONTINUOUS
 10
1577.7425160128
 20
899.5206778634
 30
0.0
 40
0.5
100
AcDbArc
 50
0.0
 51
73.7012036185
  0
ARC
  5
37B
100
AcDbEntity
  8
0
100
AcDbCircle
 62
7
  6
CONTINUOUS
 10
1561.4425160128
 20
905.1202569998
 30
0.0
 40
0.3
100
AcDbArc
 50
180.0
 51
253.7012036185
  0
ARC
  5
37C
100
AcDbEntity
  8
0
100
AcDbCircle
 62
7
  6
CONTINUOUS
 10
1601.5425160128
 20
905.1202569998
 30
0.0
 40
0.3
100
AcDbArc
 50
286.2987963815
 51
360.0
  0
SPLINE
  5
37D
100
AcDbEntity
  8
0
100
AcDbSpline
 62
7
  6
CONTINUOUS
 70
0
 71
3
 72
15
 73
11
 74
0
 42
0.0000001
 43
0.0000001
 44
0.0000000001
 40
0.0
 40
0.0
 40
0.0
 40
0.0
 40
0.1215334961
 40
0.2452853544
 40
0.3709270971
 40
0.4978029926
 40
0.6250607342
 40
0.7517650714
 40
0.8770041664
 40
1.0
 40
1.0
 40
1.0
 40
1.0
 10
693.8151146385
 20
90.7954148236
 30
0.0
 10
695.1707602002
 20
90.7954148236
 30
0.0
 10
697.9096286042
 20
90.9895843593
 30
0.0
 10
701.9761214499
 20
91.8017944206
 30
0.0
 10
705.9785148971
 20
93.0942218434
 30
0.0
 10
709.8535057524
 20
94.8250811268
 30
0.0
 10
713.5386641684
 20
96.9532511208
 30
0.0
 10
716.9709890529
 20
99.4383908735
 30
0.0
 10
720.0866547707
 20
102.2398376671
 30
0.0
 10
721.9307323125
 20
104.3154692385
 30
0.0
 10
722.7769892281
 20
105.3953376611
 30
0.0
  0
SPLINE
  5
37E
100
AcDbEntity
  8
0
100
AcDbSpline
 62
7
  6
CONTINUOUS
 70
0
 71
3
 72
15
 73
11
 74
0
 42
0.0000001
 43
0.0000001
 44
0.0000000001
 40
0.0
 40
0.0
 40
0.0
 40
0.0
 40
0.1215334961
 40
0.2452853544
 40
0.3709270971
 40
0.4978029926
 40
0.6250607342
 40
0.7517650714
 40
0.8770041664
 40
1.0
 40
1.0
 40
1.0
 40
1.0
 10
693.8151146385
 20
90.7954148236
 30
0.0
 10
692.4594690767
 20
90.7954148236
 30
0.0
 10
689.7206006727
 20
90.9895843593
 30
0.0
 10
685.6541078271
 20
91.8017944206
 30
0.0
 10
681.6517143798
 20
93.0942218434
 30
0.0
 10
677.7767235245
 20
94.8250811268
 30
0.0
 10
674.0915651085
 20
96.9532511208
 30
0.0
 10
670.659240224
 20
99.4383908735
 30
0.0
 10
667.5435745062
 20
102.2398376671
 30
0.0
 10
665.6994969644
 20
104.3154692385
 30
0.0
 10
664.8532400488
 20
105.3953376611
 30
0.0
  0
SPLINE
  5
37F
100
AcDbEntity
  8
0
100
AcDbSpline
 62
7
  6
CONTINUOUS
 70
0
 71
3
 72
15
 73
11
 74
0
 42
0.0000001
 43
0.0000001
 44
0.0000000001
 40
0.0
 40
0.0
 40
0.0
 40
0.0
 40
0.1215334961
 40
0.2452853544
 40
0.3709270971
 40
0.4978029926
 40
0.6250607342
 40
0.7517650714
 40
0.8770041664
 40
1.0
 40
1.0
 40
1.0
 40
1.0
 10
1243.8151146385
 20
90.7954148236
 30
0.0
 10
1242.4594690767
 20
90.7954148236
 30
0.0
 10
1239.7206006727
 20
90.9895843593
 30
0.0
 10
1235.6541078271
 20
91.8017944206
 30
0.0
 10
1231.6517143798
 20
93.0942218434
 30
0.0
 10
1227.7767235245
 20
94.8250811268
 30
0.0
 10
1224.0915651085
 20
96.9532511208
 30
0.0
 10
1220.659240224
 20
99.4383908735
 30
0.0
 10
1217.5435745062
 20
102.2398376671
 30
0.0
 10
1215.6994969644
 20
104.3154692385
 30
0.0
 10
1214.8532400488
 20
105.3953376611
 30
0.0
  0
SPLINE
  5
380
100
AcDbEntity
  8
0
100
AcDbSpline
 62
7
  6
CONTINUOUS
 70
0
 71
3
 72
15
 73
11
 74
0
 42
0.0000001
 43
0.0000001
 44
0.0000000001
 40
0.0
 40
0.0
 40
0.0
 40
0.0
 40
0.1215334961
 40
0.2452853544
 40
0.3709270971
 40
0.4978029926
 40
0.6250607342
 40
0.7517650714
 40
0.8770041664
 40
1.0
 40
1.0
 40
1.0
 40
1.0
 10
1243.8151146385
 20
90.7954148236
 30
0.0
 10
1245.1707602002
 20
90.7954148236
 30
0.0
 10
1247.9096286042
 20
90.9895843593
 30
0.0
 10
1251.9761214499
 20
91.8017944206
 30
0.0
 10
1255.9785148971
 20
93.0942218434
 30
0.0
 10
1259.8535057524
 20
94.8250811268
 30
0.0
 10
1263.5386641684
 20
96.9532511208
 30
0.0
 10
1266.9709890529
 20
99.4383908735
 30
0.0
 10
1270.0866547707
 20
102.2398376671
 30
0.0
 10
1271.9307323125
 20
104.3154692385
 30
0.0
 10
1272.7769892281
 20
105.3953376611
 30
0.0
  0
SPLINE
  5
381
100
AcDbEntity
  8
0
100
AcDbSpline
 62
7
  6
CONTINUOUS
 70
0
 71
3
 72
15
 73
11
 74
0
 42
0.0000001
 43
0.0000001
 44
0.0000000001
 40
0.0
 40
0.0
 40
0.0
 40
0.0
 40
0.1229958314
 40
0.2482349252
 40
0.374939262
 40
0.502197004
 40
0.6290729004
 40
0.7547146441
 40
0.8784665033
 40
1.0
 40
1.0
 40
1.0
 40
1.0
 10
1610.4543933865
 20
105.3953412138
 30
0.0
 10
1609.6081365188
 20
104.3154725503
 30
0.0
 10
1607.7640590019
 20
102.2398405037
 30
0.0
 10
1604.6483931658
 20
99.4383930566
 30
0.0
 10
1601.2160680236
 20
96.9532527047
 30
0.0
 10
1597.5309092368
 20
94.8250821819
 30
0.0
 10
1593.6559179232
 20
93.0942224561
 30
0.0
 10
1589.6535239558
 20
91.8017946941
 30
0.0
 10
1585.5870305537
 20
90.9895844138
 30
0.0
 10
1582.8481617637
 20
90.7954148236
 30
0.0
 10
1581.4925160128
 20
90.7954148236
 30
0.0
  0
SPLINE
  5
382
100
AcDbEntity
  8
0
100
AcDbSpline
 62
7
  6
CONTINUOUS
 70
0
 71
3
 72
15
 73
11
 74
0
 42
0.0000001
 43
0.0000001
 44
0.0000000001
 40
0.0
 40
0.0
 40
0.0
 40
0.0
 40
0.1229958314
 40
0.2482349252
 40
0.374939262
 40
0.502197004
 40
0.6290729004
 40
0.7547146441
 40
0.8784665033
 40
1.0
 40
1.0
 40
1.0
 40
1.0
 10
1552.530638639
 20
105.3953412138
 30
0.0
 10
1553.3768955068
 20
104.3154725503
 30
0.0
 10
1555.2209730236
 20
102.2398405037
 30
0.0
 10
1558.3366388597
 20
99.4383930566
 30
0.0
 10
1561.7689640019
 20
96.9532527047
 30
0.0
 10
1565.4541227888
 20
94.8250821819
 30
0.0
 10
1569.3291141023
 20
93.0942224561
 30
0.0
 10
1573.3315080697
 20
91.8017946941
 30
0.0
 10
1577.3980014718
 20
90.9895844138
 30
0.0
 10
1580.1368702618
 20
90.7954148236
 30
0.0
 10
1581.4925160128
 20
90.7954148236
 30
0.0
  0
SPLINE
  5
383
100
AcDbEntity
  8
0
100
AcDbSpline
 62
7
  6
CONTINUOUS
 70
0
 71
3
 72
15
 73
11
 74
0
 42
0.0000001
 43
0.0000001
 44
0.0000000001
 40
0.0
 40
0.0
 40
0.0
 40
0.0
 40
0.1857589413
 40
0.276506138
 40
0.3648025472
 40
0.5317465512
 40
0.6823158156
 40
0.8113689812
 40
0.9122388517
 40
1.0
 40
1.0
 40
1.0
 40
1.0
 10
1583.7285839903
 20
145.7954148236
 30
0.0
 10
1583.7285839903
 20
145.9298809071
 30
0.0
 10
1583.7468234513
 20
146.130591737
 30
0.0
 10
1583.8039221179
 20
146.3885598006
 30
0.0
 10
1583.8743315598
 20
146.6291042482
 30
0.0
 10
1583.9825567094
 20
146.9028318594
 30
0.0
 10
1584.125932004
 20
147.1928011044
 30
0.0
 10
1584.2620824081
 20
147.4323395458
 30
0.0
 10
1584.3825872145
 20
147.6282331492
 30
0.0
 10
1584.4571944982
 20
147.7426094123
 30
0.0
 10
1584.4925160128
 20
147.7954148236
 30
0.0
  0
SPLINE
  5
384
100
AcDbEntity
  8
0
100
AcDbSpline
 62
7
  6
CONTINUOUS
 70
0
 71
3
 72
14
 73
10
 74
0
 42
0.0000001
 43
0.0000001
 44
0.0000000001
 40
0.0
 40
0.0
 40
0.0
 40
0.0
 40
0.0934565447
 40
0.1859617676
 40
0.276688269
 40
0.3650332886
 40
0.6822609247
 40
0.9122271523
 40
1.0
 40
1.0
 40
1.0
 40
1.0
 10
1583.7285839903
 20
139.7954148236
 30
0.0
 10
1583.7285839903
 20
139.7277746988
 30
0.0
 10
1583.7344900761
 20
139.5930953291
 30
0.0
 10
1583.7614688175
 20
139.3944106546
 30
0.0
 10
1583.8039288033
 20
139.2023075086
 30
0.0
 10
1583.9049321835
 20
138.8573447424
 30
0.0
 10
1584.0973415426
 20
138.4363635647
 30
0.0
 10
1584.3316744745
 20
138.0409353309
 30
0.0
 10
1584.4572908161
 20
137.8482924354
 30
0.0
 10
1584.4925160128
 20
137.7954148236
 30
0.0
  0
ENDSEC
  0
SECTION
  2
OBJECTS
  0
DICTIONARY
  5
C
100
AcDbDictionary
280
0
281
1
  3
ACAD_GROUP
350
D
  3
ACAD_MLINESTYLE
350
17
  3
ACAD_LAYOUT
350
1A
  3
ACAD_PLOTSETTINGS
350
19
  3
ACAD_PLOTSTYLENAME
350
E
  0
DICTIONARY
  5
D
102
{ACAD_REACTORS
330
C
102
}
100
AcDbDictionary
280
0
281
1
  0
ACDBDICTIONARYWDFLT
  5
E
102
{ACAD_REACTORS
330
C
102
}
100
AcDbDictionary
281
1
  3
Normal
350
F
100
AcDbDictionaryWithDefault
340
F
  0
DICTIONARY
  5
17
102
{ACAD_REACTORS
330
C
102
}
100
AcDbDictionary
280
0
281
1
  3
Standard
350
18
  0
DICTIONARY
  5
19
102
{ACAD_REACTORS
330
C
102
}
100
AcDbDictionary
281
1
  0
DICTIONARY
  5
1A
102
{ACAD_REACTORS
330
C
102
}
100
AcDbDictionary
281
1
  3
Model
350
385
  3
Layout1
350
386
  0
ACDBPLACEHOLDER
  5
F
102
{ACAD_REACTORS
330
E
102
}
  0
MLINESTYLE
  5
18
102
{ACAD_REACTORS
330
17
102
}
100
AcDbMlineStyle
  2
STANDARD
 70
0
  3

 62
256
 51
90.0
 52
90.0
 71
2
 49
0.5
 62
256
  6
BYLAYER
 49
-0.5
 62
256
  6
BYLAYER
  0
LAYOUT
  5
385
102
{ACAD_REACTORS
330
1A
102
}
100
AcDbPlotSettings
  1

  2
none_device
  4

  6

 40
0.0
 41
0.0
 42
0.0
 43
0.0
 44
1782.0
 45
1260.0
 46
0.0
 47
0.0
 48
0.0
 49
0.0
140
0.0
141
0.0
142
1.0
143
1.0
 70
1024
 72
1
 73
0
 74
0
  7

 75
0
147
1.0
148
0.0
149
0.0
100
AcDbLayout
  1
Model
 70
0
 71
0
 10
0.0
 20
0.0
 11
1782.0
 21
1260.0
 12
0.0
 22
0.0
 32
0.0
 14
0.0
 24
0.0
 34
0.0
 15
0.0
 25
0.0
 35
0.0
146
0.0
 13
0.0
 23
0.0
 33
0.0
 16
1.0
 26
0.0
 36
0.0
 17
0.0
 27
1.0
 37
0.0
 76
0
330
25E
345
0
346
0
  0
LAYOUT
  5
386
102
{ACAD_REACTORS
330
1A
102
}
100
AcDbPlotSettings
  1

  2
none_device
  4

  6

 40
0.0
 41
0.0
 42
0.0
 43
0.0
 44
1782.0
 45
1260.0
 46
0.0
 47
0.0
 48
0.0
 49
0.0
140
0.0
141
0.0
142
1.0
143
1.0
 70
0
 72
1
 73
0
 74
0
  7

 75
0
147
1.0
148
0.0
149
0.0
100
AcDbLayout
  1
Layout1
 70
0
 71
1
 10
0.0
 20
0.0
 11
1782.0
 21
1260.0
 12
0.0
 22
0.0
 32
0.0
 14
0.0
 24
0.0
 34
0.0
 15
0.0
 25
0.0
 35
0.0
146
0.0
 13
0.0
 23
0.0
 33
0.0
 16
1.0
 26
0.0
 36
0.0
 17
0.0
 27
1.0
 37
0.0
 76
0
330
25F
345
0
346
0
  0
ENDSEC
  0
EOF
