999
DXF file: a0701004_d200_2D.dxf
999
Pro/ENGINEER 2023494 by Parametric Technology Corporation
  0
SECTION
  2
HEADER
  9
$ACADVER
  1
AC1027
  9
$DWGCODEPAGE
  3
ANSI_1252
  9
$EXTMAX
 10
841.0
 20
594.0
 30
0.0
  9
$EXTMIN
 10
0.0
 20
0.0
 30
0.0
  9
$LIMMIN
 10
0.0
 20
0.0
  9
$LIMMAX
 10
841.0
 20
594.0
  9
$VIEWCTR
 10
420.5
 20
297.0
  9
$VIEWSIZE
 40
594.0
  9
$CLAYER
  8
0
  9
$LTSCALE
 40
46.255
  9
$CELTYPE
  6
BYLAYER
  9
$DIMSCALE
 40
1.0
  9
$DIMASZ
 40
4.0
  9
$DIMEXO
 40
1.0
  9
$DIMDLI
 40
31.958
  9
$DIMEXE
 40
1.0
  9
$DIMCEN
 40
7.569
  9
$DIMLFAC
 40
1.0
  9
$DIMBLK
  1
_FILLED
  9
$DIMALT
 70
0
  9
$DIMALTF
 40
0.0393700787
  9
$DIMTXT
 40
3.0
  9
$DIMTOL
 70
1
  9
$DIMLIM
 70
0
  9
$DIMTFAC
 40
1.0
  9
$DIMTP
 40
0.001
  9
$DIMTM
 40
0.001
  9
$DIMGAP
 40
0.625
  9
$DIMDSEP
 70
46
  9
$AUNITS
 70
0
  9
$PDMODE
 70
3
  9
$PDSIZE
 40
0.3125
  9
$HANDSEED
  5
265
  9
$TILEMODE
 70
1
  9
$MEASUREMENT
 70
1
  9
$INSUNITS
 70
4
  0
ENDSEC
  0
SECTION
  2
CLASSES
  0
CLASS
  1
ACDBDICTIONARYWDFLT
  2
AcDbDictionaryWithDefault
  3
AutoCAD 2000
 90
0
 91
1
280
0
281
0
  0
CLASS
  1
ACDBPLACEHOLDER
  2
AcDbPlaceHolder
  3
AutoCAD 2000
 90
0
 91
1
280
0
281
0
  0
CLASS
  1
LAYOUT
  2
AcDbLayout
  3
AutoCAD 2000
 90
0
 91
0
280
0
281
0
  0
ENDSEC
  0
SECTION
  2
TABLES
  0
TABLE
  2
VPORT
  5
8
100
AcDbSymbolTable
 70
2
  0
VPORT
  5
1F4
100
AcDbSymbolTableRecord
100
AcDbViewportTableRecord
  2
*ACTIVE
 70
0
 10
0.0
 20
0.0
 11
1.0
 21
1.0
 12
420.5
 22
297.0
 13
0.0
 23
0.0
 14
1.0
 24
1.0
 15
0.0
 25
0.0
 16
0.0
 26
0.0
 36
1.0
 17
0.0
 27
0.0
 37
0.0
 40
594.0
 41
1.4158249158
 42
50.0
 43
0.0
 44
0.0
 50
0.0
 51
0.0
 71
0
 72
100
 73
1
 74
1
 75
0
 76
0
 77
0
 78
0
  0
ENDTAB
  0
TABLE
  2
LTYPE
  5
5
100
AcDbSymbolTable
 70
6
  0
LTYPE
  5
14
100
AcDbSymbolTableRecord
100
AcDbLinetypeTableRecord
  2
BYBLOCK
 70
0
  3

 72
65
 73
0
 40
0.0
  0
LTYPE
  5
15
100
AcDbSymbolTableRecord
100
AcDbLinetypeTableRecord
  2
BYLAYER
 70
0
  3

 72
65
 73
0
 40
0.0
  0
LTYPE
  5
16
100
AcDbSymbolTableRecord
100
AcDbLinetypeTableRecord
  2
CONTINUOUS
 70
64
  3
Solid line
 72
65
 73
0
 40
0.0
  0
LTYPE
  5
1F5
100
AcDbSymbolTableRecord
100
AcDbLinetypeTableRecord
  2
CENTER
 70
64
  3
____ _ ____ _ ____ _ ____ _ ____ _ ____ _ ____
 72
65
 73
4
 40
0.6
 49
0.375
 74
0
 49
-0.075
 74
0
 49
0.075
 74
0
 49
-0.075
 74
0
  0
LTYPE
  5
1F6
100
AcDbSymbolTableRecord
100
AcDbLinetypeTableRecord
  2
HIDDEN
 70
64
  3
- - - - - - - - - - - - - - - - - - - -
 72
65
 73
2
 40
0.2
 49
0.1
 74
0
 49
-0.1
 74
0
  0
LTYPE
  5
1F7
100
AcDbSymbolTableRecord
100
AcDbLinetypeTableRecord
  2
PHANTOM
 70
64
  3
_____ _ _ _____ _ _ _____ _ _ _____
 72
65
 73
6
 40
0.8
 49
0.45
 74
0
 49
-0.05
 74
0
 49
0.1
 74
0
 49
-0.05
 74
0
 49
0.1
 74
0
 49
-0.05
 74
0
  0
LTYPE
  5
1F8
100
AcDbSymbolTableRecord
100
AcDbLinetypeTableRecord
  2
DOT
 70
64
  3
. . . . . . . . . . . . . . . . . . . .
 72
65
 73
2
 40
0.2
 49
0.1
 74
0
 49
-0.1
 74
0
  0
LTYPE
  5
1F9
100
AcDbSymbolTableRecord
100
AcDbLinetypeTableRecord
  2
DASHED
 70
64
  3
- - - - - - - - - - - - - - - - - - - -
 72
65
 73
2
 40
0.2
 49
0.1
 74
0
 49
-0.1
 74
0
  0
ENDTAB
  0
TABLE
  2
LAYER
  5
2
100
AcDbSymbolTable
 70
36
  0
LAYER
  5
10
100
AcDbSymbolTableRecord
100
AcDbLayerTableRecord
  2
0
 70
0
 62
7
  6
CONTINUOUS
370
-3
390
F
  0
LAYER
  5
1FA
100
AcDbSymbolTableRecord
100
AcDbLayerTableRecord
  2
DEFAULT_1
 70
0
 62
7
  6
CENTER
370
-3
390
F
  0
LAYER
  5
1FB
100
AcDbSymbolTableRecord
100
AcDbLayerTableRecord
  2
DEFAULT_2
 70
0
 62
8
  6
HIDDEN
370
-3
390
F
  0
LAYER
  5
1FC
100
AcDbSymbolTableRecord
100
AcDbLayerTableRecord
  2
DEFAULT_3
 70
0
 62
7
  6
PHANTOM
370
-3
390
F
  0
LAYER
  5
1FD
100
AcDbSymbolTableRecord
100
AcDbLayerTableRecord
  2
1_ALL_PLANES
 70
0
 62
7
  6
CONTINUOUS
370
-3
390
F
  0
LAYER
  5
1FE
100
AcDbSymbolTableRecord
100
AcDbLayerTableRecord
  2
1__DEF_ASM_PLN
 70
0
 62
7
  6
CONTINUOUS
370
-3
390
F
  0
LAYER
  5
1FF
100
AcDbSymbolTableRecord
100
AcDbLayerTableRecord
  2
1__DEF_PLANES
 70
0
 62
7
  6
CONTINUOUS
370
-3
390
F
  0
LAYER
  5
200
100
AcDbSymbolTableRecord
100
AcDbLayerTableRecord
  2
2_ALL_CSYS
 70
0
 62
7
  6
CONTINUOUS
370
-3
390
F
  0
LAYER
  5
201
100
AcDbSymbolTableRecord
100
AcDbLayerTableRecord
  2
2__DEF_ASM_CSYS
 70
0
 62
7
  6
CONTINUOUS
370
-3
390
F
  0
LAYER
  5
202
100
AcDbSymbolTableRecord
100
AcDbLayerTableRecord
  2
2__DEF_CSYS
 70
0
 62
7
  6
CONTINUOUS
370
-3
390
F
  0
LAYER
  5
203
100
AcDbSymbolTableRecord
100
AcDbLayerTableRecord
  2
ALL_AXES
 70
0
 62
7
  6
CONTINUOUS
370
-3
390
F
  0
LAYER
  5
204
100
AcDbSymbolTableRecord
100
AcDbLayerTableRecord
  2
ALL_CURVES
 70
0
 62
7
  6
CONTINUOUS
370
-3
390
F
  0
LAYER
  5
205
100
AcDbSymbolTableRecord
100
AcDbLayerTableRecord
  2
ALL_FEATURES
 70
0
 62
7
  6
CONTINUOUS
370
-3
390
F
  0
LAYER
  5
206
100
AcDbSymbolTableRecord
100
AcDbLayerTableRecord
  2
ALL_PLANES
 70
0
 62
7
  6
CONTINUOUS
370
-3
390
F
  0
LAYER
  5
207
100
AcDbSymbolTableRecord
100
AcDbLayerTableRecord
  2
BLOCCACAVO
 70
0
 62
7
  6
CONTINUOUS
370
-3
390
F
  0
LAYER
  5
208
100
AcDbSymbolTableRecord
100
AcDbLayerTableRecord
  2
CAPPELLO
 70
0
 62
7
  6
CONTINUOUS
370
-3
390
F
  0
LAYER
  5
209
100
AcDbSymbolTableRecord
100
AcDbLayerTableRecord
  2
CAVI_HOLDER
 70
0
 62
7
  6
CONTINUOUS
370
-3
390
F
  0
LAYER
  5
20A
100
AcDbSymbolTableRecord
100
AcDbLayerTableRecord
  2
COASSIALE
 70
0
 62
7
  6
CONTINUOUS
370
-3
390
F
  0
LAYER
  5
20B
100
AcDbSymbolTableRecord
100
AcDbLayerTableRecord
  2
COPERTURA
 70
0
 62
7
  6
CONTINUOUS
370
-3
390
F
  0
LAYER
  5
20C
100
AcDbSymbolTableRecord
100
AcDbLayerTableRecord
  2
ETICHETTA
 70
0
 62
7
  6
CONTINUOUS
370
-3
390
F
  0
LAYER
  5
20D
100
AcDbSymbolTableRecord
100
AcDbLayerTableRecord
  2
FILETTI
 70
0
 62
7
  6
CONTINUOUS
370
-3
390
F
  0
LAYER
  5
20E
100
AcDbSymbolTableRecord
100
AcDbLayerTableRecord
  2
HOLDER_LED
 70
0
 62
7
  6
CONTINUOUS
370
-3
390
F
  0
LAYER
  5
20F
100
AcDbSymbolTableRecord
100
AcDbLayerTableRecord
  2
MORSETTO
 70
0
 62
7
  6
CONTINUOUS
370
-3
390
F
  0
LAYER
  5
210
100
AcDbSymbolTableRecord
100
AcDbLayerTableRecord
  2
NOTE
 70
0
 62
7
  6
CONTINUOUS
370
-3
390
F
  0
LAYER
  5
211
100
AcDbSymbolTableRecord
100
AcDbLayerTableRecord
  2
PIASTRA_FILETTATURE
 70
0
 62
7
  6
CONTINUOUS
370
-3
390
F
  0
LAYER
  5
212
100
AcDbSymbolTableRecord
100
AcDbLayerTableRecord
  2
PORTALENTE
 70
0
 62
7
  6
CONTINUOUS
370
-3
390
F
  0
LAYER
  5
213
100
AcDbSymbolTableRecord
100
AcDbLayerTableRecord
  2
TAPPO_MORSETTI
 70
0
 62
7
  6
CONTINUOUS
370
-3
390
F
  0
LAYER
  5
214
100
AcDbSymbolTableRecord
100
AcDbLayerTableRecord
  2
TUBETTO
 70
0
 62
7
  6
CONTINUOUS
370
-3
390
F
  0
ENDTAB
  0
TABLE
  2
STYLE
  5
3
100
AcDbSymbolTable
 70
1
  0
STYLE
  5
11
100
AcDbSymbolTableRecord
100
AcDbTextStyleTableRecord
  2
STANDARD
 70
0
 40
0.0
 41
1.0
 50
0.0
 71
0
 42
0.2
  3
trium.ttf
  4

1001
ACAD
1000
CG Triumvirate
1071
34
  0
STYLE
  5
215
100
AcDbSymbolTableRecord
100
AcDbTextStyleTableRecord
  2
TEXTSTYLE_1
 70
0
 40
0.0
 41
0.8
 50
0.0
 71
0
 42
0.2
  3
gdt
  4

  0
ENDTAB
  0
TABLE
  2
VIEW
  5
6
100
AcDbSymbolTable
 70
0
  0
ENDTAB
  0
TABLE
  2
UCS
  5
7
100
AcDbSymbolTable
 70
0
  0
ENDTAB
  0
TABLE
  2
APPID
  5
9
100
AcDbSymbolTable
 70
1
  0
APPID
  5
216
100
AcDbSymbolTableRecord
100
AcDbRegAppTableRecord
  2
ACAD
 70
0
  0
ENDTAB
  0
TABLE
  2
BLOCK_RECORD
  5
1
100
AcDbSymbolTable
 70
0
  0
BLOCK_RECORD
  5
217
100
AcDbSymbolTableRecord
100
AcDbBlockTableRecord
  2
*Model_Space
  0
BLOCK_RECORD
  5
218
100
AcDbSymbolTableRecord
100
AcDbBlockTableRecord
  2
*Paper_Space
  0
BLOCK_RECORD
  5
219
100
AcDbSymbolTableRecord
100
AcDbBlockTableRecord
  2
_FILLED
  0
ENDTAB
  0
TABLE
  2
DIMSTYLE
  5
A
100
AcDbSymbolTable
 70
1
100
AcDbDimStyleTable
 71
0
  0
DIMSTYLE
105
21A
100
AcDbSymbolTableRecord
100
AcDbDimStyleTableRecord
  2
STANDARD
 70
0
  3

  4

 40
1.0
 41
4.0
 42
1.0
 43
0.38
 44
1.0
 45
0.0
 46
0.0
 47
0.001
 48
0.001
140
3.0
141
0.09
142
0.0
143
25.4
144
1.0
145
0.0
146
1.0
147
0.625
 71
1
 72
0
 73
0
 74
0
 75
0
 76
0
 77
1
 78
8
 79
2
170
0
171
2
172
0
173
0
174
0
175
0
176
0
177
0
178
0
270
2
179
3
271
3
272
3
273
2
274
2
275
0
280
0
281
0
282
0
283
1
284
8
285
0
286
0
287
3
288
0
340
11
278
46
341
219
342
219
343
219
344
219
  0
ENDTAB
  0
ENDSEC
  0
SECTION
  2
BLOCKS
  0
BLOCK
  5
20
100
AcDbEntity
  8
0
100
AcDbBlockBegin
  2
*Model_Space
 70
0
 10
0.0
 20
0.0
 30
0.0
  3
*Model_Space
  1

  0
ENDBLK
  5
21
100
AcDbEntity
  8
0
100
AcDbBlockEnd
  0
BLOCK
  5
1C
100
AcDbEntity
  8
0
100
AcDbBlockBegin
  2
*Paper_Space
 70
0
 10
0.0
 20
0.0
 30
0.0
  3
*Paper_Space
  1

  0
ENDBLK
  5
1D
100
AcDbEntity
  8
0
100
AcDbBlockEnd
  0
BLOCK
  5
21B
100
AcDbEntity
  8
0
100
AcDbBlockBegin
  2
_FILLED
 70
64
 10
0.0
 20
0.0
 30
0.0
  3
_FILLED
  1

  0
SOLID
  5
21C
100
AcDbEntity
  8
0
  6
BYBLOCK
 62
0
100
AcDbTrace
 10
0.0
 20
0.0
 30
0.0
 11
-1.0
 21
0.1875
 31
0.0
 12
-1.0
 22
-0.1875
 32
0.0
 13
-1.0
 23
-0.1875
 33
0.0
  0
ENDBLK
  5
21D
100
AcDbEntity
  8
0
  6
BYBLOCK
 62
0
100
AcDbBlockEnd
  0
ENDSEC
  0
SECTION
  2
ENTITIES
  0
LINE
  5
21E
100
AcDbEntity
  8
0
100
AcDbLine
 62
7
  6
CONTINUOUS
 10
0.0
 20
0.0
 30
0.0
 11
0.0
 21
594.0
 31
0.0
  0
LINE
  5
21F
100
AcDbEntity
  8
0
100
AcDbLine
 62
7
  6
CONTINUOUS
 10
0.0
 20
0.0
 30
0.0
 11
841.0
 21
0.0
 31
0.0
  0
LINE
  5
220
100
AcDbEntity
  8
0
100
AcDbLine
 62
7
  6
CONTINUOUS
 10
0.0
 20
594.0
 30
0.0
 11
841.0
 21
594.0
 31
0.0
  0
LINE
  5
221
100
AcDbEntity
  8
0
100
AcDbLine
 62
7
  6
CONTINUOUS
 10
841.0
 20
0.0
 30
0.0
 11
841.0
 21
594.0
 31
0.0
  0
LINE
  5
222
100
AcDbEntity
  8
CAPPELLO
100
AcDbLine
 62
7
  6
CONTINUOUS
 10
180.9624370805
 20
157.188746673
 30
0.0
 11
181.3143868255
 21
155.7306206918
 31
0.0
  0
LINE
  5
223
100
AcDbEntity
  8
PORTALENTE
100
AcDbLine
 62
7
  6
CONTINUOUS
 10
241.704663598
 20
155.7306206918
 30
0.0
 11
243.5285421049
 21
150.5003808558
 31
0.0
  0
LINE
  5
224
100
AcDbEntity
  8
PORTALENTE
100
AcDbLine
 62
7
  6
CONTINUOUS
 10
317.4520968591
 20
149.8296526168
 30
0.0
 11
244.472777302
 21
149.8296526168
 31
0.0
  0
LINE
  5
225
100
AcDbEntity
  8
PORTALENTE
100
AcDbLine
 62
9
  6
CONTINUOUS
 10
318.3963320562
 20
150.5003808558
 30
0.0
 11
243.5285421049
 21
150.5003808558
 31
0.0
  0
LWPOLYLINE
  5
226
100
AcDbEntity
  8
TUBETTO
100
AcDbPolyline
 62
7
  6
CONTINUOUS
 90
3
 70
0
 10
277.9758488685
 20
180.9491652973
 10
277.9658172082
 20
180.933943865
 10
277.9624370805
 20
180.9296526168
  0
LINE
  5
227
100
AcDbEntity
  8
TUBETTO
100
AcDbLine
 62
7
  6
CONTINUOUS
 10
277.9758131764
 20
180.9497574752
 30
0.0
 11
277.9624370805
 21
180.9296526168
 31
0.0
  0
LINE
  5
228
100
AcDbEntity
  8
CAPPELLO
100
AcDbLine
 62
7
  6
CONTINUOUS
 10
181.3143868255
 20
155.7306206918
 30
0.0
 11
380.6104873356
 21
155.7306206918
 31
0.0
  0
LINE
  5
229
100
AcDbEntity
  8
CAPPELLO
100
AcDbLine
 62
7
  6
CONTINUOUS
 10
180.9624370805
 20
157.188746673
 30
0.0
 11
380.9624370805
 21
157.188746673
 31
0.0
  0
LINE
  5
22A
100
AcDbEntity
  8
COPERTURA
100
AcDbLine
 62
7
  6
CONTINUOUS
 10
275.9624370805
 20
171.4296526168
 30
0.0
 11
275.9624370805
 21
173.9296526168
 31
0.0
  0
LINE
  5
22B
100
AcDbEntity
  8
TUBETTO
100
AcDbLine
 62
7
  6
CONTINUOUS
 10
277.9624370805
 20
173.9296526168
 30
0.0
 11
277.9624370805
 21
180.9296526168
 31
0.0
  0
LINE
  5
22C
100
AcDbEntity
  8
TUBETTO
100
AcDbLine
 62
7
  6
CONTINUOUS
 10
277.9624370805
 20
190.9296526168
 30
0.0
 11
277.9624370805
 21
201.9296526168
 31
0.0
  0
LINE
  5
22D
100
AcDbEntity
  8
TUBETTO
100
AcDbLine
 62
7
  6
CONTINUOUS
 10
278.726369103
 20
182.9296526168
 30
0.0
 11
278.726369103
 21
188.9296526168
 31
0.0
  0
LINE
  5
22E
100
AcDbEntity
  8
TUBETTO
100
AcDbLine
 62
7
  6
CONTINUOUS
 10
283.9624370805
 20
173.9296526168
 30
0.0
 11
283.9624370805
 21
201.9296526168
 31
0.0
  0
LINE
  5
22F
100
AcDbEntity
  8
COPERTURA
100
AcDbLine
 62
7
  6
CONTINUOUS
 10
285.9624370805
 20
171.4296526168
 30
0.0
 11
285.9624370805
 21
173.9296526168
 31
0.0
  0
LINE
  5
230
100
AcDbEntity
  8
CAPPELLO
100
AcDbLine
 62
9
  6
CONTINUOUS
 10
322.3094047692
 20
171.3459045792
 30
0.0
 11
239.6154693919
 21
171.3459045792
 31
0.0
  0
LINE
  5
231
100
AcDbEntity
  8
CAPPELLO
100
AcDbLine
 62
7
  6
CONTINUOUS
 10
321.6055052793
 20
171.4296526168
 30
0.0
 11
240.3193688818
 21
171.4296526168
 31
0.0
  0
LINE
  5
232
100
AcDbEntity
  8
COPERTURA
100
AcDbLine
 62
7
  6
CONTINUOUS
 10
275.9624370805
 20
173.9296526168
 30
0.0
 11
285.9624370805
 21
173.9296526168
 31
0.0
  0
LINE
  5
233
100
AcDbEntity
  8
CAPPELLO
100
AcDbLine
 62
7
  6
CONTINUOUS
 10
239.6154693919
 20
171.3459045792
 30
0.0
 11
180.9624370805
 21
157.188746673
 31
0.0
  0
LINE
  5
234
100
AcDbEntity
  8
CAPPELLO
100
AcDbLine
 62
7
  6
CONTINUOUS
 10
322.3094047692
 20
171.3459045792
 30
0.0
 11
380.9624370805
 21
157.188746673
 31
0.0
  0
LINE
  5
235
100
AcDbEntity
  8
TUBETTO
100
AcDbLine
 62
7
  6
CONTINUOUS
 10
277.9624370805
 20
201.9296526168
 30
0.0
 11
283.9624370805
 21
201.9296526168
 31
0.0
  0
LINE
  5
236
100
AcDbEntity
  8
PORTALENTE
100
AcDbLine
 62
7
  6
CONTINUOUS
 10
320.2202105631
 20
155.7306206918
 30
0.0
 11
318.3963320562
 21
150.5003808558
 31
0.0
  0
LINE
  5
237
100
AcDbEntity
  8
CAPPELLO
100
AcDbLine
 62
7
  6
CONTINUOUS
 10
380.9624370805
 20
157.188746673
 30
0.0
 11
380.6104873356
 21
155.7306206918
 31
0.0
  0
LINE
  5
238
100
AcDbEntity
  8
CAPPELLO
100
AcDbLine
 62
7
  6
CONTINUOUS
 10
474.3246854027
 20
157.188746673
 30
0.0
 11
474.6766351476
 21
155.7306206918
 31
0.0
  0
LINE
  5
239
100
AcDbEntity
  8
PORTALENTE
100
AcDbLine
 62
7
  6
CONTINUOUS
 10
535.0669119201
 20
155.7306206918
 30
0.0
 11
536.890790427
 21
150.5003808558
 31
0.0
  0
LINE
  5
23A
100
AcDbEntity
  8
PORTALENTE
100
AcDbLine
 62
7
  6
CONTINUOUS
 10
610.8143451813
 20
149.8296526168
 30
0.0
 11
537.8350256241
 21
149.8296526168
 31
0.0
  0
LINE
  5
23B
100
AcDbEntity
  8
PORTALENTE
100
AcDbLine
 62
9
  6
CONTINUOUS
 10
611.7585803783
 20
150.5003808558
 30
0.0
 11
536.890790427
 21
150.5003808558
 31
0.0
  0
LINE
  5
23C
100
AcDbEntity
  8
CAPPELLO
100
AcDbLine
 62
7
  6
CONTINUOUS
 10
474.6766351476
 20
155.7306206918
 30
0.0
 11
673.9727356577
 21
155.7306206918
 31
0.0
  0
LINE
  5
23D
100
AcDbEntity
  8
CAPPELLO
100
AcDbLine
 62
7
  6
CONTINUOUS
 10
474.3246854027
 20
157.188746673
 30
0.0
 11
674.3246854027
 21
157.188746673
 31
0.0
  0
LINE
  5
23E
100
AcDbEntity
  8
COPERTURA
100
AcDbLine
 62
7
  6
CONTINUOUS
 10
569.3246854027
 20
171.4296526168
 30
0.0
 11
569.3246854027
 21
173.9296526168
 31
0.0
  0
LINE
  5
23F
100
AcDbEntity
  8
TUBETTO
100
AcDbLine
 62
7
  6
CONTINUOUS
 10
571.3246854027
 20
173.9296526168
 30
0.0
 11
571.3246854027
 21
201.9296526168
 31
0.0
  0
LINE
  5
240
100
AcDbEntity
  8
TUBETTO
100
AcDbLine
 62
7
  6
CONTINUOUS
 10
572.3246854027
 20
182.9296526168
 30
0.0
 11
572.3246854027
 21
188.9296526168
 31
0.0
  0
LINE
  5
241
100
AcDbEntity
  8
TUBETTO
100
AcDbLine
 62
7
  6
CONTINUOUS
 10
576.3246854027
 20
182.9296526168
 30
0.0
 11
576.3246854027
 21
188.9296526168
 31
0.0
  0
LINE
  5
242
100
AcDbEntity
  8
TUBETTO
100
AcDbLine
 62
7
  6
CONTINUOUS
 10
577.3246854027
 20
173.9296526168
 30
0.0
 11
577.3246854027
 21
201.9296526168
 31
0.0
  0
LINE
  5
243
100
AcDbEntity
  8
COPERTURA
100
AcDbLine
 62
7
  6
CONTINUOUS
 10
579.3246854027
 20
171.4296526168
 30
0.0
 11
579.3246854027
 21
173.9296526168
 31
0.0
  0
LINE
  5
244
100
AcDbEntity
  8
CAPPELLO
100
AcDbLine
 62
9
  6
CONTINUOUS
 10
615.6716530913
 20
171.3459045792
 30
0.0
 11
532.977717714
 21
171.3459045792
 31
0.0
  0
LINE
  5
245
100
AcDbEntity
  8
CAPPELLO
100
AcDbLine
 62
7
  6
CONTINUOUS
 10
614.9677536014
 20
171.4296526168
 30
0.0
 11
533.681617204
 21
171.4296526168
 31
0.0
  0
LINE
  5
246
100
AcDbEntity
  8
COPERTURA
100
AcDbLine
 62
7
  6
CONTINUOUS
 10
569.3246854027
 20
173.9296526168
 30
0.0
 11
579.3246854027
 21
173.9296526168
 31
0.0
  0
LINE
  5
247
100
AcDbEntity
  8
CAPPELLO
100
AcDbLine
 62
7
  6
CONTINUOUS
 10
532.977717714
 20
171.3459045792
 30
0.0
 11
474.3246854027
 21
157.188746673
 31
0.0
  0
LINE
  5
248
100
AcDbEntity
  8
CAPPELLO
100
AcDbLine
 62
7
  6
CONTINUOUS
 10
533.681617204
 20
171.4296526168
 30
0.0
 11
532.977717714
 21
171.3459045792
 31
0.0
  0
LINE
  5
249
100
AcDbEntity
  8
CAPPELLO
100
AcDbLine
 62
7
  6
CONTINUOUS
 10
614.9677536014
 20
171.4296526168
 30
0.0
 11
615.6716530913
 21
171.3459045792
 31
0.0
  0
LINE
  5
24A
100
AcDbEntity
  8
CAPPELLO
100
AcDbLine
 62
7
  6
CONTINUOUS
 10
615.6716530913
 20
171.3459045792
 30
0.0
 11
674.3246854027
 21
157.188746673
 31
0.0
  0
LINE
  5
24B
100
AcDbEntity
  8
TUBETTO
100
AcDbLine
 62
7
  6
CONTINUOUS
 10
571.3246854027
 20
201.9296526168
 30
0.0
 11
577.3246854027
 21
201.9296526168
 31
0.0
  0
LINE
  5
24C
100
AcDbEntity
  8
PORTALENTE
100
AcDbLine
 62
7
  6
CONTINUOUS
 10
613.5824588853
 20
155.7306206918
 30
0.0
 11
611.7585803783
 21
150.5003808558
 31
0.0
  0
LINE
  5
24D
100
AcDbEntity
  8
CAPPELLO
100
AcDbLine
 62
7
  6
CONTINUOUS
 10
674.3246854027
 20
157.188746673
 30
0.0
 11
673.9727356577
 21
155.7306206918
 31
0.0
  0
ARC
  5
24E
100
AcDbEntity
  8
CAPPELLO
100
AcDbCircle
 62
7
  6
CONTINUOUS
 10
240.3193688818
 20
168.4296526168
 30
0.0
 40
3.0
100
AcDbArc
 50
90.0
 51
103.57
  0
ARC
  5
24F
100
AcDbEntity
  8
CAPPELLO
100
AcDbCircle
 62
7
  6
CONTINUOUS
 10
321.6055052793
 20
168.4296526168
 30
0.0
 40
3.0
100
AcDbArc
 50
76.43
 51
90.0
  0
ARC
  5
250
100
AcDbEntity
  8
PORTALENTE
100
AcDbCircle
 62
7
  6
CONTINUOUS
 10
317.4520968591
 20
150.8296526168
 30
0.0
 40
1.0
100
AcDbArc
 50
270.0
 51
340.7754196796
  0
ARC
  5
251
100
AcDbEntity
  8
PORTALENTE
100
AcDbCircle
 62
7
  6
CONTINUOUS
 10
244.472777302
 20
150.8296526168
 30
0.0
 40
1.0
100
AcDbArc
 50
199.2245803204
 51
270.0
  0
CIRCLE
  5
252
100
AcDbEntity
  8
CAPPELLO
100
AcDbCircle
 62
7
  6
CONTINUOUS
 10
280.9624370805
 20
403.2009437919
 30
0.0
 40
100.0
  0
CIRCLE
  5
253
100
AcDbEntity
  8
CAPPELLO
100
AcDbCircle
 62
7
  6
CONTINUOUS
 10
280.9624370805
 20
403.2009437919
 30
0.0
 40
99.648050255
  0
CIRCLE
  5
254
100
AcDbEntity
  8
PORTALENTE
100
AcDbCircle
 62
7
  6
CONTINUOUS
 10
280.9624370805
 20
403.2009437919
 30
0.0
 40
43.7961119406
  0
CIRCLE
  5
255
100
AcDbEntity
  8
PORTALENTE
100
AcDbCircle
 62
9
  6
CONTINUOUS
 10
280.9624370805
 20
403.2009437919
 30
0.0
 40
43.7682295391
  0
CIRCLE
  5
256
100
AcDbEntity
  8
PORTALENTE
100
AcDbCircle
 62
9
  6
CONTINUOUS
 10
280.9624370805
 20
403.2009437919
 30
0.0
 40
37.4338949756
  0
CIRCLE
  5
257
100
AcDbEntity
  8
PORTALENTE
100
AcDbCircle
 62
9
  6
CONTINUOUS
 10
280.9624370805
 20
403.2009437919
 30
0.0
 40
36.4896597786
  0
CIRCLE
  5
258
100
AcDbEntity
  8
PORTALENTE
100
AcDbCircle
 62
7
  6
CONTINUOUS
 10
280.9624370805
 20
403.2009437919
 30
0.0
 40
29.4
  0
ARC
  5
259
100
AcDbEntity
  8
TUBETTO
100
AcDbCircle
 62
7
  6
CONTINUOUS
 10
574.3246854027
 20
188.9296526168
 30
0.0
 40
2.0
100
AcDbArc
 50
0.0
 51
180.0
  0
ARC
  5
25A
100
AcDbEntity
  8
TUBETTO
100
AcDbCircle
 62
7
  6
CONTINUOUS
 10
574.3246854027
 20
182.9296526168
 30
0.0
 40
2.0
100
AcDbArc
 50
180.0
 51
360.0
  0
ARC
  5
25B
100
AcDbEntity
  8
PORTALENTE
100
AcDbCircle
 62
7
  6
CONTINUOUS
 10
610.8143451813
 20
150.8296526168
 30
0.0
 40
1.0
100
AcDbArc
 50
270.0
 51
340.7754196795
  0
ARC
  5
25C
100
AcDbEntity
  8
PORTALENTE
100
AcDbCircle
 62
7
  6
CONTINUOUS
 10
537.8350256241
 20
150.8296526168
 30
0.0
 40
1.0
100
AcDbArc
 50
199.2245803205
 51
270.0
  0
SPLINE
  5
25D
100
AcDbEntity
  8
PORTALENTE
100
AcDbSpline
 62
7
  6
CONTINUOUS
 70
0
 71
3
 72
14
 73
10
 74
0
 42
0.0000001
 43
0.0000001
 44
0.0000000001
 40
0.0
 40
0.0
 40
0.0
 40
0.0
 40
0.1231047401
 40
0.2484692968
 40
0.4388279434
 40
0.5343090899
 40
0.6294208179
 40
0.817034922
 40
1.0
 40
1.0
 40
1.0
 40
1.0
 10
309.9225006894
 20
149.8261716236
 30
0.0
 10
309.0753596808
 20
148.7437292639
 30
0.0
 10
307.2306213886
 20
146.6614573189
 30
0.0
 10
303.5899307507
 20
143.3708634807
 30
0.0
 10
299.7929372125
 20
140.7515040366
 30
0.0
 10
296.0342964934
 20
138.7529419505
 30
0.0
 10
292.1579796075
 20
137.0677793928
 30
0.0
 10
287.150697027
 20
135.5770316485
 30
0.0
 10
283.0053378195
 20
135.1296526168
 30
0.0
 10
280.9624370805
 20
135.1296526168
 30
0.0
  0
SPLINE
  5
25E
100
AcDbEntity
  8
PORTALENTE
100
AcDbSpline
 62
7
  6
CONTINUOUS
 70
0
 71
3
 72
14
 73
10
 74
0
 42
0.0000001
 43
0.0000001
 44
0.0000000001
 40
0.0
 40
0.0
 40
0.0
 40
0.0
 40
0.1231047401
 40
0.2484692968
 40
0.4388279434
 40
0.5343090899
 40
0.6294208179
 40
0.817034922
 40
1.0
 40
1.0
 40
1.0
 40
1.0
 10
252.0023734717
 20
149.8261716236
 30
0.0
 10
252.8495144803
 20
148.7437292639
 30
0.0
 10
254.6942527725
 20
146.6614573189
 30
0.0
 10
258.3349434104
 20
143.3708634807
 30
0.0
 10
262.1319369486
 20
140.7515040366
 30
0.0
 10
265.8905776676
 20
138.7529419505
 30
0.0
 10
269.7668945536
 20
137.0677793928
 30
0.0
 10
274.7741771341
 20
135.5770316485
 30
0.0
 10
278.9195363416
 20
135.1296526168
 30
0.0
 10
280.9624370805
 20
135.1296526168
 30
0.0
  0
SPLINE
  5
25F
100
AcDbEntity
  8
TUBETTO
100
AcDbSpline
 62
7
  6
CONTINUOUS
 70
0
 71
3
 72
11
 73
7
 74
0
 42
0.0000001
 43
0.0000001
 44
0.0000000001
 40
0.0
 40
0.0
 40
0.0
 40
0.0
 40
0.1718923546
 40
0.3384049234
 40
0.7664061831
 40
1.0
 40
1.0
 40
1.0
 40
1.0
 10
278.726369103
 20
182.9296526168
 30
0.0
 10
278.726369103
 20
182.8067098764
 30
0.0
 10
278.7060152114
 20
182.5642430094
 30
0.0
 10
278.5777038087
 20
182.0296993239
 30
0.0
 10
278.3186351702
 20
181.4900302054
 30
0.0
 10
278.0680836822
 20
181.0890403569
 30
0.0
 10
277.9758131764
 20
180.9497574752
 30
0.0
  0
SPLINE
  5
260
100
AcDbEntity
  8
TUBETTO
100
AcDbSpline
 62
7
  6
CONTINUOUS
 70
0
 71
3
 72
12
 73
8
 74
0
 42
0.0000001
 43
0.0000001
 44
0.0000000001
 40
0.0
 40
0.0
 40
0.0
 40
0.0
 40
0.0878213642
 40
0.3177793058
 40
0.6350395726
 40
0.814072438
 40
1.0
 40
1.0
 40
1.0
 40
1.0
 10
277.9624370805
 20
190.9296526168
 30
0.0
 10
277.9976673532
 20
190.8767636641
 30
0.0
 10
278.1233115223
 20
190.6841739539
 30
0.0
 10
278.3578904238
 20
190.2889047536
 30
0.0
 10
278.5770007851
 20
189.8079299189
 30
0.0
 10
278.7020183418
 20
189.3288039205
 30
0.0
 10
278.726369103
 20
189.0641823951
 30
0.0
 10
278.726369103
 20
188.9296526168
 30
0.0
  0
SPLINE
  5
261
100
AcDbEntity
  8
PORTALENTE
100
AcDbSpline
 62
7
  6
CONTINUOUS
 70
0
 71
3
 72
14
 73
10
 74
0
 42
0.0000001
 43
0.0000001
 44
0.0000000001
 40
0.0
 40
0.0
 40
0.0
 40
0.0
 40
0.1231037376
 40
0.2484677442
 40
0.4388263154
 40
0.5343076836
 40
0.6294197253
 40
0.8170344874
 40
1.0
 40
1.0
 40
1.0
 40
1.0
 10
603.2859924068
 20
149.8277604816
 30
0.0
 10
602.438872175
 20
148.7452112411
 30
0.0
 10
600.5941441643
 20
146.6627281528
 30
0.0
 10
596.9533886831
 20
143.3717916628
 30
0.0
 10
593.1562548536
 20
140.752150588
 30
0.0
 10
589.3974363589
 20
138.7533665935
 30
0.0
 10
585.5209114547
 20
137.0680112286
 30
0.0
 10
580.5133347508
 20
135.577087814
 30
0.0
 10
576.3677136986
 20
135.1296526168
 30
0.0
 10
574.3246854027
 20
135.1296526168
 30
0.0
  0
SPLINE
  5
262
100
AcDbEntity
  8
PORTALENTE
100
AcDbSpline
 62
7
  6
CONTINUOUS
 70
0
 71
3
 72
14
 73
10
 74
0
 42
0.0000001
 43
0.0000001
 44
0.0000000001
 40
0.0
 40
0.0
 40
0.0
 40
0.0
 40
0.1231037376
 40
0.2484677442
 40
0.4388263154
 40
0.5343076836
 40
0.6294197253
 40
0.8170344874
 40
1.0
 40
1.0
 40
1.0
 40
1.0
 10
545.3633783985
 20
149.8277604816
 30
0.0
 10
546.2104986304
 20
148.7452112411
 30
0.0
 10
548.0552266411
 20
146.6627281528
 30
0.0
 10
551.6959821222
 20
143.3717916628
 30
0.0
 10
555.4931159518
 20
140.752150588
 30
0.0
 10
559.2519344464
 20
138.7533665935
 30
0.0
 10
563.1284593507
 20
137.0680112286
 30
0.0
 10
568.1360360545
 20
135.577087814
 30
0.0
 10
572.2816571068
 20
135.1296526168
 30
0.0
 10
574.3246854027
 20
135.1296526168
 30
0.0
  0
ENDSEC
  0
SECTION
  2
OBJECTS
  0
DICTIONARY
  5
C
100
AcDbDictionary
280
0
281
1
  3
ACAD_GROUP
350
D
  3
ACAD_MLINESTYLE
350
17
  3
ACAD_LAYOUT
350
1A
  3
ACAD_PLOTSETTINGS
350
19
  3
ACAD_PLOTSTYLENAME
350
E
  0
DICTIONARY
  5
D
102
{ACAD_REACTORS
330
C
102
}
100
AcDbDictionary
280
0
281
1
  0
ACDBDICTIONARYWDFLT
  5
E
102
{ACAD_REACTORS
330
C
102
}
100
AcDbDictionary
281
1
  3
Normal
350
F
100
AcDbDictionaryWithDefault
340
F
  0
DICTIONARY
  5
17
102
{ACAD_REACTORS
330
C
102
}
100
AcDbDictionary
280
0
281
1
  3
Standard
350
18
  0
DICTIONARY
  5
19
102
{ACAD_REACTORS
330
C
102
}
100
AcDbDictionary
281
1
  0
DICTIONARY
  5
1A
102
{ACAD_REACTORS
330
C
102
}
100
AcDbDictionary
281
1
  3
Model
350
263
  3
Layout1
350
264
  0
ACDBPLACEHOLDER
  5
F
102
{ACAD_REACTORS
330
E
102
}
  0
MLINESTYLE
  5
18
102
{ACAD_REACTORS
330
17
102
}
100
AcDbMlineStyle
  2
STANDARD
 70
0
  3

 62
256
 51
90.0
 52
90.0
 71
2
 49
0.5
 62
256
  6
BYLAYER
 49
-0.5
 62
256
  6
BYLAYER
  0
LAYOUT
  5
263
102
{ACAD_REACTORS
330
1A
102
}
100
AcDbPlotSettings
  1

  2
none_device
  4
ISO_A1_(594.00_x_841.00_MM)
  6

 40
0.0
 41
0.0
 42
0.0
 43
0.0
 44
841.0
 45
594.0
 46
0.0
 47
0.0
 48
0.0
 49
0.0
140
0.0
141
0.0
142
1.0
143
1.0
 70
1024
 72
1
 73
0
 74
0
  7

 75
0
147
1.0
148
0.0
149
0.0
100
AcDbLayout
  1
Model
 70
0
 71
0
 10
0.0
 20
0.0
 11
841.0
 21
594.0
 12
0.0
 22
0.0
 32
0.0
 14
0.0
 24
0.0
 34
0.0
 15
0.0
 25
0.0
 35
0.0
146
0.0
 13
0.0
 23
0.0
 33
0.0
 16
1.0
 26
0.0
 36
0.0
 17
0.0
 27
1.0
 37
0.0
 76
0
330
217
345
0
346
0
  0
LAYOUT
  5
264
102
{ACAD_REACTORS
330
1A
102
}
100
AcDbPlotSettings
  1

  2
none_device
  4
ISO_A1_(594.00_x_841.00_MM)
  6

 40
0.0
 41
0.0
 42
0.0
 43
0.0
 44
841.0
 45
594.0
 46
0.0
 47
0.0
 48
0.0
 49
0.0
140
0.0
141
0.0
142
1.0
143
1.0
 70
0
 72
1
 73
0
 74
0
  7

 75
0
147
1.0
148
0.0
149
0.0
100
AcDbLayout
  1
Layout1
 70
0
 71
1
 10
0.0
 20
0.0
 11
841.0
 21
594.0
 12
0.0
 22
0.0
 32
0.0
 14
0.0
 24
0.0
 34
0.0
 15
0.0
 25
0.0
 35
0.0
146
0.0
 13
0.0
 23
0.0
 33
0.0
 16
1.0
 26
0.0
 36
0.0
 17
0.0
 27
1.0
 37
0.0
 76
0
330
218
345
0
346
0
  0
ENDSEC
  0
EOF
