999
DXF file: a0701008_d860_2d.dxf
999
Pro/ENGINEER 2023494 by Parametric Technology Corporation
  0
SECTION
  2
HEADER
  9
$ACADVER
  1
AC1027
  9
$DWGCODEPAGE
  3
ANSI_1252
  9
$EXTMAX
 10
2523.0
 20
1782.0
 30
0.0
  9
$EXTMIN
 10
0.0
 20
0.0
 30
0.0
  9
$LIMMIN
 10
0.0
 20
0.0
  9
$LIMMAX
 10
2523.0
 20
1782.0
  9
$VIEWCTR
 10
1261.5
 20
891.0
  9
$VIEWSIZE
 40
1782.0
  9
$CLAYER
  8
0
  9
$LTSCALE
 40
138.765
  9
$CELTYPE
  6
BYLAYER
  9
$DIMSCALE
 40
1.0
  9
$DIMASZ
 40
4.0
  9
$DIMEXO
 40
1.0
  9
$DIMDLI
 40
95.874
  9
$DIMEXE
 40
1.0
  9
$DIMCEN
 40
22.707
  9
$DIMLFAC
 40
1.0
  9
$DIMBLK
  1
_FILLED
  9
$DIMALT
 70
0
  9
$DIMALTF
 40
0.0393700787
  9
$DIMTXT
 40
3.0
  9
$DIMTOL
 70
1
  9
$DIMLIM
 70
0
  9
$DIMTFAC
 40
1.0
  9
$DIMTP
 40
0.001
  9
$DIMTM
 40
0.001
  9
$DIMGAP
 40
0.625
  9
$DIMDSEP
 70
46
  9
$AUNITS
 70
0
  9
$PDMODE
 70
3
  9
$PDSIZE
 40
0.3125
  9
$HANDSEED
  5
26D
  9
$TILEMODE
 70
1
  9
$MEASUREMENT
 70
1
  9
$INSUNITS
 70
4
  0
ENDSEC
  0
SECTION
  2
CLASSES
  0
CLASS
  1
ACDBDICTIONARYWDFLT
  2
AcDbDictionaryWithDefault
  3
AutoCAD 2000
 90
0
 91
1
280
0
281
0
  0
CLASS
  1
ACDBPLACEHOLDER
  2
AcDbPlaceHolder
  3
AutoCAD 2000
 90
0
 91
1
280
0
281
0
  0
CLASS
  1
LAYOUT
  2
AcDbLayout
  3
AutoCAD 2000
 90
0
 91
0
280
0
281
0
  0
ENDSEC
  0
SECTION
  2
TABLES
  0
TABLE
  2
VPORT
  5
8
100
AcDbSymbolTable
 70
2
  0
VPORT
  5
1F4
100
AcDbSymbolTableRecord
100
AcDbViewportTableRecord
  2
*ACTIVE
 70
0
 10
0.0
 20
0.0
 11
1.0
 21
1.0
 12
1261.5
 22
891.0
 13
0.0
 23
0.0
 14
1.0
 24
1.0
 15
0.0
 25
0.0
 16
0.0
 26
0.0
 36
1.0
 17
0.0
 27
0.0
 37
0.0
 40
1782.0
 41
1.4158249158
 42
50.0
 43
0.0
 44
0.0
 50
0.0
 51
0.0
 71
0
 72
100
 73
1
 74
1
 75
0
 76
0
 77
0
 78
0
  0
ENDTAB
  0
TABLE
  2
LTYPE
  5
5
100
AcDbSymbolTable
 70
6
  0
LTYPE
  5
14
100
AcDbSymbolTableRecord
100
AcDbLinetypeTableRecord
  2
BYBLOCK
 70
0
  3

 72
65
 73
0
 40
0.0
  0
LTYPE
  5
15
100
AcDbSymbolTableRecord
100
AcDbLinetypeTableRecord
  2
BYLAYER
 70
0
  3

 72
65
 73
0
 40
0.0
  0
LTYPE
  5
16
100
AcDbSymbolTableRecord
100
AcDbLinetypeTableRecord
  2
CONTINUOUS
 70
64
  3
Solid line
 72
65
 73
0
 40
0.0
  0
LTYPE
  5
1F5
100
AcDbSymbolTableRecord
100
AcDbLinetypeTableRecord
  2
CENTER
 70
64
  3
____ _ ____ _ ____ _ ____ _ ____ _ ____ _ ____
 72
65
 73
4
 40
0.6
 49
0.375
 74
0
 49
-0.075
 74
0
 49
0.075
 74
0
 49
-0.075
 74
0
  0
LTYPE
  5
1F6
100
AcDbSymbolTableRecord
100
AcDbLinetypeTableRecord
  2
HIDDEN
 70
64
  3
- - - - - - - - - - - - - - - - - - - -
 72
65
 73
2
 40
0.2
 49
0.1
 74
0
 49
-0.1
 74
0
  0
LTYPE
  5
1F7
100
AcDbSymbolTableRecord
100
AcDbLinetypeTableRecord
  2
PHANTOM
 70
64
  3
_____ _ _ _____ _ _ _____ _ _ _____
 72
65
 73
6
 40
0.8
 49
0.45
 74
0
 49
-0.05
 74
0
 49
0.1
 74
0
 49
-0.05
 74
0
 49
0.1
 74
0
 49
-0.05
 74
0
  0
LTYPE
  5
1F8
100
AcDbSymbolTableRecord
100
AcDbLinetypeTableRecord
  2
DOT
 70
64
  3
. . . . . . . . . . . . . . . . . . . .
 72
65
 73
2
 40
0.2
 49
0.1
 74
0
 49
-0.1
 74
0
  0
LTYPE
  5
1F9
100
AcDbSymbolTableRecord
100
AcDbLinetypeTableRecord
  2
DASHED
 70
64
  3
- - - - - - - - - - - - - - - - - - - -
 72
65
 73
2
 40
0.2
 49
0.1
 74
0
 49
-0.1
 74
0
  0
ENDTAB
  0
TABLE
  2
LAYER
  5
2
100
AcDbSymbolTable
 70
36
  0
LAYER
  5
10
100
AcDbSymbolTableRecord
100
AcDbLayerTableRecord
  2
0
 70
0
 62
7
  6
CONTINUOUS
370
-3
390
F
  0
LAYER
  5
1FA
100
AcDbSymbolTableRecord
100
AcDbLayerTableRecord
  2
DEFAULT_1
 70
0
 62
7
  6
CENTER
370
-3
390
F
  0
LAYER
  5
1FB
100
AcDbSymbolTableRecord
100
AcDbLayerTableRecord
  2
DEFAULT_2
 70
0
 62
8
  6
HIDDEN
370
-3
390
F
  0
LAYER
  5
1FC
100
AcDbSymbolTableRecord
100
AcDbLayerTableRecord
  2
DEFAULT_3
 70
0
 62
7
  6
PHANTOM
370
-3
390
F
  0
LAYER
  5
1FD
100
AcDbSymbolTableRecord
100
AcDbLayerTableRecord
  2
1_ALL_PLANES
 70
0
 62
7
  6
CONTINUOUS
370
-3
390
F
  0
LAYER
  5
1FE
100
AcDbSymbolTableRecord
100
AcDbLayerTableRecord
  2
1__DEF_ASM_PLN
 70
0
 62
7
  6
CONTINUOUS
370
-3
390
F
  0
LAYER
  5
1FF
100
AcDbSymbolTableRecord
100
AcDbLayerTableRecord
  2
1__DEF_PLANES
 70
0
 62
7
  6
CONTINUOUS
370
-3
390
F
  0
LAYER
  5
200
100
AcDbSymbolTableRecord
100
AcDbLayerTableRecord
  2
2_ALL_CSYS
 70
0
 62
7
  6
CONTINUOUS
370
-3
390
F
  0
LAYER
  5
201
100
AcDbSymbolTableRecord
100
AcDbLayerTableRecord
  2
2__DEF_ASM_CSYS
 70
0
 62
7
  6
CONTINUOUS
370
-3
390
F
  0
LAYER
  5
202
100
AcDbSymbolTableRecord
100
AcDbLayerTableRecord
  2
2__DEF_CSYS
 70
0
 62
7
  6
CONTINUOUS
370
-3
390
F
  0
LAYER
  5
203
100
AcDbSymbolTableRecord
100
AcDbLayerTableRecord
  2
ALL_AXES
 70
0
 62
7
  6
CONTINUOUS
370
-3
390
F
  0
LAYER
  5
204
100
AcDbSymbolTableRecord
100
AcDbLayerTableRecord
  2
ALL_CURVES
 70
0
 62
7
  6
CONTINUOUS
370
-3
390
F
  0
LAYER
  5
205
100
AcDbSymbolTableRecord
100
AcDbLayerTableRecord
  2
ALL_FEATURES
 70
0
 62
7
  6
CONTINUOUS
370
-3
390
F
  0
LAYER
  5
206
100
AcDbSymbolTableRecord
100
AcDbLayerTableRecord
  2
ALL_PLANES
 70
0
 62
7
  6
CONTINUOUS
370
-3
390
F
  0
LAYER
  5
207
100
AcDbSymbolTableRecord
100
AcDbLayerTableRecord
  2
BLOCCACAVO
 70
0
 62
7
  6
CONTINUOUS
370
-3
390
F
  0
LAYER
  5
208
100
AcDbSymbolTableRecord
100
AcDbLayerTableRecord
  2
CAMPANELLA-SOSP
 70
0
 62
7
  6
CONTINUOUS
370
-3
390
F
  0
LAYER
  5
209
100
AcDbSymbolTableRecord
100
AcDbLayerTableRecord
  2
CAPPELLO
 70
0
 62
7
  6
CONTINUOUS
370
-3
390
F
  0
LAYER
  5
20A
100
AcDbSymbolTableRecord
100
AcDbLayerTableRecord
  2
CAVI_HOLDER
 70
0
 62
7
  6
CONTINUOUS
370
-3
390
F
  0
LAYER
  5
20B
100
AcDbSymbolTableRecord
100
AcDbLayerTableRecord
  2
CAVO-SOSP
 70
0
 62
7
  6
CONTINUOUS
370
-3
390
F
  0
LAYER
  5
20C
100
AcDbSymbolTableRecord
100
AcDbLayerTableRecord
  2
COASSIALE
 70
0
 62
7
  6
CONTINUOUS
370
-3
390
F
  0
LAYER
  5
20D
100
AcDbSymbolTableRecord
100
AcDbLayerTableRecord
  2
COPERTURA
 70
0
 62
7
  6
CONTINUOUS
370
-3
390
F
  0
LAYER
  5
20E
100
AcDbSymbolTableRecord
100
AcDbLayerTableRecord
  2
ETICHETTA
 70
0
 62
7
  6
CONTINUOUS
370
-3
390
F
  0
LAYER
  5
20F
100
AcDbSymbolTableRecord
100
AcDbLayerTableRecord
  2
FILETTI
 70
0
 62
7
  6
CONTINUOUS
370
-3
390
F
  0
LAYER
  5
210
100
AcDbSymbolTableRecord
100
AcDbLayerTableRecord
  2
HOLDER_LED
 70
0
 62
7
  6
CONTINUOUS
370
-3
390
F
  0
LAYER
  5
211
100
AcDbSymbolTableRecord
100
AcDbLayerTableRecord
  2
MORSETTO
 70
0
 62
7
  6
CONTINUOUS
370
-3
390
F
  0
LAYER
  5
212
100
AcDbSymbolTableRecord
100
AcDbLayerTableRecord
  2
NOTE
 70
0
 62
7
  6
CONTINUOUS
370
-3
390
F
  0
LAYER
  5
213
100
AcDbSymbolTableRecord
100
AcDbLayerTableRecord
  2
PIASTRA_FILETTATURE
 70
0
 62
7
  6
CONTINUOUS
370
-3
390
F
  0
LAYER
  5
214
100
AcDbSymbolTableRecord
100
AcDbLayerTableRecord
  2
PORTALENTE
 70
0
 62
7
  6
CONTINUOUS
370
-3
390
F
  0
LAYER
  5
215
100
AcDbSymbolTableRecord
100
AcDbLayerTableRecord
  2
TAPPO_MORSETTI
 70
0
 62
7
  6
CONTINUOUS
370
-3
390
F
  0
LAYER
  5
216
100
AcDbSymbolTableRecord
100
AcDbLayerTableRecord
  2
TUBETTO
 70
0
 62
7
  6
CONTINUOUS
370
-3
390
F
  0
ENDTAB
  0
TABLE
  2
STYLE
  5
3
100
AcDbSymbolTable
 70
1
  0
STYLE
  5
11
100
AcDbSymbolTableRecord
100
AcDbTextStyleTableRecord
  2
STANDARD
 70
0
 40
0.0
 41
1.0
 50
0.0
 71
0
 42
0.2
  3
trium.ttf
  4

1001
ACAD
1000
CG Triumvirate
1071
34
  0
STYLE
  5
217
100
AcDbSymbolTableRecord
100
AcDbTextStyleTableRecord
  2
TEXTSTYLE_1
 70
0
 40
0.0
 41
0.8
 50
0.0
 71
0
 42
0.2
  3
gdt
  4

  0
ENDTAB
  0
TABLE
  2
VIEW
  5
6
100
AcDbSymbolTable
 70
0
  0
ENDTAB
  0
TABLE
  2
UCS
  5
7
100
AcDbSymbolTable
 70
0
  0
ENDTAB
  0
TABLE
  2
APPID
  5
9
100
AcDbSymbolTable
 70
1
  0
APPID
  5
218
100
AcDbSymbolTableRecord
100
AcDbRegAppTableRecord
  2
ACAD
 70
0
  0
ENDTAB
  0
TABLE
  2
BLOCK_RECORD
  5
1
100
AcDbSymbolTable
 70
0
  0
BLOCK_RECORD
  5
219
100
AcDbSymbolTableRecord
100
AcDbBlockTableRecord
  2
*Model_Space
  0
BLOCK_RECORD
  5
21A
100
AcDbSymbolTableRecord
100
AcDbBlockTableRecord
  2
*Paper_Space
  0
BLOCK_RECORD
  5
21B
100
AcDbSymbolTableRecord
100
AcDbBlockTableRecord
  2
_FILLED
  0
ENDTAB
  0
TABLE
  2
DIMSTYLE
  5
A
100
AcDbSymbolTable
 70
1
100
AcDbDimStyleTable
 71
0
  0
DIMSTYLE
105
21C
100
AcDbSymbolTableRecord
100
AcDbDimStyleTableRecord
  2
STANDARD
 70
0
  3

  4

 40
1.0
 41
4.0
 42
1.0
 43
0.38
 44
1.0
 45
0.0
 46
0.0
 47
0.001
 48
0.001
140
3.0
141
0.09
142
0.0
143
25.4
144
1.0
145
0.0
146
1.0
147
0.625
 71
1
 72
0
 73
0
 74
0
 75
0
 76
0
 77
1
 78
8
 79
2
170
0
171
2
172
0
173
0
174
0
175
0
176
0
177
0
178
0
270
2
179
3
271
3
272
3
273
2
274
2
275
0
280
0
281
0
282
0
283
1
284
8
285
0
286
0
287
3
288
0
340
11
278
46
341
21B
342
21B
343
21B
344
21B
  0
ENDTAB
  0
ENDSEC
  0
SECTION
  2
BLOCKS
  0
BLOCK
  5
20
100
AcDbEntity
  8
0
100
AcDbBlockBegin
  2
*Model_Space
 70
0
 10
0.0
 20
0.0
 30
0.0
  3
*Model_Space
  1

  0
ENDBLK
  5
21
100
AcDbEntity
  8
0
100
AcDbBlockEnd
  0
BLOCK
  5
1C
100
AcDbEntity
  8
0
100
AcDbBlockBegin
  2
*Paper_Space
 70
0
 10
0.0
 20
0.0
 30
0.0
  3
*Paper_Space
  1

  0
ENDBLK
  5
1D
100
AcDbEntity
  8
0
100
AcDbBlockEnd
  0
BLOCK
  5
21D
100
AcDbEntity
  8
0
100
AcDbBlockBegin
  2
_FILLED
 70
64
 10
0.0
 20
0.0
 30
0.0
  3
_FILLED
  1

  0
SOLID
  5
21E
100
AcDbEntity
  8
0
  6
BYBLOCK
 62
0
100
AcDbTrace
 10
0.0
 20
0.0
 30
0.0
 11
-1.0
 21
0.1875
 31
0.0
 12
-1.0
 22
-0.1875
 32
0.0
 13
-1.0
 23
-0.1875
 33
0.0
  0
ENDBLK
  5
21F
100
AcDbEntity
  8
0
  6
BYBLOCK
 62
0
100
AcDbBlockEnd
  0
ENDSEC
  0
SECTION
  2
ENTITIES
  0
LINE
  5
220
100
AcDbEntity
  8
0
100
AcDbLine
 62
7
  6
CONTINUOUS
 10
0.0
 20
0.0
 30
0.0
 11
0.0
 21
1782.0
 31
0.0
  0
LINE
  5
221
100
AcDbEntity
  8
0
100
AcDbLine
 62
7
  6
CONTINUOUS
 10
0.0
 20
0.0
 30
0.0
 11
2523.0
 21
0.0
 31
0.0
  0
LINE
  5
222
100
AcDbEntity
  8
0
100
AcDbLine
 62
7
  6
CONTINUOUS
 10
0.0
 20
1782.0
 30
0.0
 11
2523.0
 21
1782.0
 31
0.0
  0
LINE
  5
223
100
AcDbEntity
  8
0
100
AcDbLine
 62
7
  6
CONTINUOUS
 10
2523.0
 20
0.0
 30
0.0
 11
2523.0
 21
1782.0
 31
0.0
  0
LINE
  5
224
100
AcDbEntity
  8
CAPPELLO
100
AcDbLine
 62
7
  6
CONTINUOUS
 10
438.7097220191
 20
384.0845815823
 30
0.0
 11
439.1789883457
 21
382.1404136074
 31
0.0
  0
LINE
  5
225
100
AcDbEntity
  8
CAPPELLO
100
AcDbLine
 62
7
  6
CONTINUOUS
 10
439.1789883457
 20
382.1404136074
 30
0.0
 11
1298.2404556925
 21
382.1404136074
 31
0.0
  0
LINE
  5
226
100
AcDbEntity
  8
CAPPELLO
100
AcDbLine
 62
7
  6
CONTINUOUS
 10
438.7097220191
 20
384.0845815823
 30
0.0
 11
1298.7097220191
 21
384.0845815823
 31
0.0
  0
LINE
  5
227
100
AcDbEntity
  8
COPERTURA
100
AcDbLine
 62
7
  6
CONTINUOUS
 10
863.7097220191
 20
476.97921791
 30
0.0
 11
863.7097220191
 21
479.97921791
 31
0.0
  0
LINE
  5
228
100
AcDbEntity
  8
TUBETTO
100
AcDbLine
 62
7
  6
CONTINUOUS
 10
865.7097220191
 20
479.97921791
 30
0.0
 11
865.7097220191
 21
532.97921791
 31
0.0
  0
LINE
  5
229
100
AcDbEntity
  8
TUBETTO
100
AcDbLine
 62
7
  6
CONTINUOUS
 10
866.7097220191
 20
505.97921791
 30
0.0
 11
866.7097220191
 21
511.97921791
 31
0.0
  0
LINE
  5
22A
100
AcDbEntity
  8
TUBETTO
100
AcDbLine
 62
7
  6
CONTINUOUS
 10
870.7097220191
 20
505.97921791
 30
0.0
 11
870.7097220191
 21
511.97921791
 31
0.0
  0
LINE
  5
22B
100
AcDbEntity
  8
TUBETTO
100
AcDbLine
 62
7
  6
CONTINUOUS
 10
871.7097220191
 20
479.97921791
 30
0.0
 11
871.7097220191
 21
532.97921791
 31
0.0
  0
LINE
  5
22C
100
AcDbEntity
  8
COPERTURA
100
AcDbLine
 62
7
  6
CONTINUOUS
 10
873.7097220191
 20
476.97921791
 30
0.0
 11
873.7097220191
 21
479.97921791
 31
0.0
  0
LINE
  5
22D
100
AcDbEntity
  8
CAPPELLO
100
AcDbLine
 62
7
  6
CONTINUOUS
 10
823.2247543305
 20
476.8954698724
 30
0.0
 11
438.7097220191
 21
384.0845815823
 31
0.0
  0
LINE
  5
22E
100
AcDbEntity
  8
CAPPELLO
100
AcDbLine
 62
7
  6
CONTINUOUS
 10
823.9286538204
 20
476.97921791
 30
0.0
 11
823.2247543305
 21
476.8954698724
 31
0.0
  0
LINE
  5
22F
100
AcDbEntity
  8
CAPPELLO
100
AcDbLine
 62
9
  6
CONTINUOUS
 10
914.1946897078
 20
476.8954698724
 30
0.0
 11
823.2247543305
 21
476.8954698724
 31
0.0
  0
LINE
  5
230
100
AcDbEntity
  8
CAPPELLO
100
AcDbLine
 62
7
  6
CONTINUOUS
 10
913.4907902179
 20
476.97921791
 30
0.0
 11
823.9286538204
 21
476.97921791
 31
0.0
  0
LINE
  5
231
100
AcDbEntity
  8
COPERTURA
100
AcDbLine
 62
7
  6
CONTINUOUS
 10
863.7097220191
 20
479.97921791
 30
0.0
 11
873.7097220191
 21
479.97921791
 31
0.0
  0
LINE
  5
232
100
AcDbEntity
  8
CAPPELLO
100
AcDbLine
 62
7
  6
CONTINUOUS
 10
913.4907902179
 20
476.97921791
 30
0.0
 11
914.1946897078
 21
476.8954698724
 31
0.0
  0
LINE
  5
233
100
AcDbEntity
  8
CAPPELLO
100
AcDbLine
 62
7
  6
CONTINUOUS
 10
914.1946897078
 20
476.8954698724
 30
0.0
 11
1298.7097220191
 21
384.0845815823
 31
0.0
  0
LINE
  5
234
100
AcDbEntity
  8
TUBETTO
100
AcDbLine
 62
7
  6
CONTINUOUS
 10
865.7097220191
 20
524.97921791
 30
0.0
 11
871.7097220191
 21
524.97921791
 31
0.0
  0
LINE
  5
235
100
AcDbEntity
  8
TUBETTO
100
AcDbLine
 62
7
  6
CONTINUOUS
 10
865.7097220191
 20
532.97921791
 30
0.0
 11
871.7097220191
 21
532.97921791
 31
0.0
  0
LINE
  5
236
100
AcDbEntity
  8
CAPPELLO
100
AcDbLine
 62
7
  6
CONTINUOUS
 10
1298.7097220191
 20
384.0845815823
 30
0.0
 11
1298.2404556925
 21
382.1404136074
 31
0.0
  0
LINE
  5
237
100
AcDbEntity
  8
CAPPELLO
100
AcDbLine
 62
7
  6
CONTINUOUS
 10
1468.5690946691
 20
384.0845815823
 30
0.0
 11
1469.0383609957
 21
382.1404136074
 31
0.0
  0
LINE
  5
238
100
AcDbEntity
  8
CAPPELLO
100
AcDbLine
 62
7
  6
CONTINUOUS
 10
2328.0998283425
 20
382.1404136074
 30
0.0
 11
1469.0383609957
 21
382.1404136074
 31
0.0
  0
LINE
  5
239
100
AcDbEntity
  8
CAPPELLO
100
AcDbLine
 62
7
  6
CONTINUOUS
 10
2328.5690946691
 20
384.0845815823
 30
0.0
 11
1468.5690946691
 21
384.0845815823
 31
0.0
  0
LINE
  5
23A
100
AcDbEntity
  8
TUBETTO
100
AcDbLine
 62
7
  6
CONTINUOUS
 10
1901.5358593953
 20
513.9289520249
 30
0.0
 11
1901.5554208961
 21
513.9593150643
 31
0.0
  0
LWPOLYLINE
  5
23B
100
AcDbEntity
  8
TUBETTO
100
AcDbPolyline
 62
7
  6
CONTINUOUS
 90
3
 70
0
 10
1901.5554208961
 20
513.9593150643
 10
1901.5657037567
 20
513.9749187855
 10
1901.5690946691
 20
513.97921791
  0
LINE
  5
23C
100
AcDbEntity
  8
TUBETTO
100
AcDbLine
 62
7
  6
CONTINUOUS
 10
1901.5361396046
 20
513.9294374502
 30
0.0
 11
1901.5690946691
 21
513.97921791
 31
0.0
  0
LINE
  5
23D
100
AcDbEntity
  8
COPERTURA
100
AcDbLine
 62
7
  6
CONTINUOUS
 10
1893.5690946691
 20
476.97921791
 30
0.0
 11
1893.5690946691
 21
479.97921791
 31
0.0
  0
LINE
  5
23E
100
AcDbEntity
  8
TUBETTO
100
AcDbLine
 62
7
  6
CONTINUOUS
 10
1895.5690946691
 20
479.97921791
 30
0.0
 11
1895.5690946691
 21
532.97921791
 31
0.0
  0
LINE
  5
23F
100
AcDbEntity
  8
TUBETTO
100
AcDbLine
 62
7
  6
CONTINUOUS
 10
1900.8051626466
 20
505.97921791
 30
0.0
 11
1900.8051626466
 21
511.97921791
 31
0.0
  0
LINE
  5
240
100
AcDbEntity
  8
TUBETTO
100
AcDbLine
 62
7
  6
CONTINUOUS
 10
1901.5690946691
 20
479.97921791
 30
0.0
 11
1901.5690946691
 21
503.97921791
 31
0.0
  0
LINE
  5
241
100
AcDbEntity
  8
TUBETTO
100
AcDbLine
 62
7
  6
CONTINUOUS
 10
1901.5690946691
 20
513.97921791
 30
0.0
 11
1901.5690946691
 21
532.97921791
 31
0.0
  0
LINE
  5
242
100
AcDbEntity
  8
COPERTURA
100
AcDbLine
 62
7
  6
CONTINUOUS
 10
1903.5690946691
 20
476.97921791
 30
0.0
 11
1903.5690946691
 21
479.97921791
 31
0.0
  0
LINE
  5
243
100
AcDbEntity
  8
CAPPELLO
100
AcDbLine
 62
7
  6
CONTINUOUS
 10
1853.0841269805
 20
476.8954698724
 30
0.0
 11
1468.5690946691
 21
384.0845815823
 31
0.0
  0
LINE
  5
244
100
AcDbEntity
  8
CAPPELLO
100
AcDbLine
 62
9
  6
CONTINUOUS
 10
1944.0540623578
 20
476.8954698724
 30
0.0
 11
1853.0841269805
 21
476.8954698724
 31
0.0
  0
LINE
  5
245
100
AcDbEntity
  8
CAPPELLO
100
AcDbLine
 62
7
  6
CONTINUOUS
 10
1943.3501628678
 20
476.97921791
 30
0.0
 11
1853.7880264704
 21
476.97921791
 31
0.0
  0
LINE
  5
246
100
AcDbEntity
  8
COPERTURA
100
AcDbLine
 62
7
  6
CONTINUOUS
 10
1893.5690946691
 20
479.97921791
 30
0.0
 11
1903.5690946691
 21
479.97921791
 31
0.0
  0
LINE
  5
247
100
AcDbEntity
  8
CAPPELLO
100
AcDbLine
 62
7
  6
CONTINUOUS
 10
2328.5690946691
 20
384.0845815823
 30
0.0
 11
1944.0540623578
 21
476.8954698724
 31
0.0
  0
LWPOLYLINE
  5
248
100
AcDbEntity
  8
TUBETTO
100
AcDbPolyline
 62
7
  6
CONTINUOUS
 90
3
 70
0
 10
1901.5690946691
 20
503.97921791
 10
1901.5657706473
 20
503.983427048
 10
1901.5556874304
 20
503.9987283694
  0
LINE
  5
249
100
AcDbEntity
  8
TUBETTO
100
AcDbLine
 62
7
  6
CONTINUOUS
 10
1901.5690946691
 20
503.97921791
 30
0.0
 11
1901.5556552974
 21
503.9994189447
 31
0.0
  0
LINE
  5
24A
100
AcDbEntity
  8
TUBETTO
100
AcDbLine
 62
7
  6
CONTINUOUS
 10
1895.5690946691
 20
524.97921791
 30
0.0
 11
1901.5690946691
 21
524.97921791
 31
0.0
  0
LINE
  5
24B
100
AcDbEntity
  8
TUBETTO
100
AcDbLine
 62
7
  6
CONTINUOUS
 10
1895.5690946691
 20
532.97921791
 30
0.0
 11
1901.5690946691
 21
532.97921791
 31
0.0
  0
LINE
  5
24C
100
AcDbEntity
  8
CAPPELLO
100
AcDbLine
 62
7
  6
CONTINUOUS
 10
2328.5690946691
 20
384.0845815823
 30
0.0
 11
2328.0998283425
 21
382.1404136074
 31
0.0
  0
ARC
  5
24D
100
AcDbEntity
  8
TUBETTO
100
AcDbCircle
 62
7
  6
CONTINUOUS
 10
868.7097220191
 20
511.97921791
 30
0.0
 40
2.0
100
AcDbArc
 50
0.0
 51
180.0
  0
ARC
  5
24E
100
AcDbEntity
  8
TUBETTO
100
AcDbCircle
 62
7
  6
CONTINUOUS
 10
868.7097220191
 20
505.97921791
 30
0.0
 40
2.0
100
AcDbArc
 50
180.0
 51
360.0
  0
CIRCLE
  5
24F
100
AcDbEntity
  8
CAPPELLO
100
AcDbCircle
 62
7
  6
CONTINUOUS
 10
868.7097220191
 20
1079.9275572099
 30
0.0
 40
430.0
  0
CIRCLE
  5
250
100
AcDbEntity
  8
CAPPELLO
100
AcDbCircle
 62
7
  6
CONTINUOUS
 10
868.7097220191
 20
1079.9275572099
 30
0.0
 40
429.5307336734
  0
CIRCLE
  5
251
100
AcDbEntity
  8
CAPPELLO
100
AcDbCircle
 62
9
  6
CONTINUOUS
 10
868.7097220191
 20
1079.9275572099
 30
0.0
 40
45.1891852063
  0
CIRCLE
  5
252
100
AcDbEntity
  8
CAPPELLO
100
AcDbCircle
 62
9
  6
CONTINUOUS
 10
868.7097220191
 20
1079.9275572099
 30
0.0
 40
44.6026022981
  0
CIRCLE
  5
253
100
AcDbEntity
  8
PORTALENTE
100
AcDbCircle
 62
7
  6
CONTINUOUS
 10
868.7097220191
 20
1079.9275572099
 30
0.0
 40
43.7961119406
  0
CIRCLE
  5
254
100
AcDbEntity
  8
PORTALENTE
100
AcDbCircle
 62
9
  6
CONTINUOUS
 10
868.7097220191
 20
1079.9275572099
 30
0.0
 40
43.7682295391
  0
CIRCLE
  5
255
100
AcDbEntity
  8
PORTALENTE
100
AcDbCircle
 62
9
  6
CONTINUOUS
 10
868.7097220191
 20
1079.9275572099
 30
0.0
 40
37.4338949756
  0
CIRCLE
  5
256
100
AcDbEntity
  8
PORTALENTE
100
AcDbCircle
 62
9
  6
CONTINUOUS
 10
868.7097220191
 20
1079.9275572099
 30
0.0
 40
36.4896597786
  0
CIRCLE
  5
257
100
AcDbEntity
  8
PORTALENTE
100
AcDbCircle
 62
7
  6
CONTINUOUS
 10
868.7097220191
 20
1079.9275572099
 30
0.0
 40
29.4
  0
ARC
  5
258
100
AcDbEntity
  8
TUBETTO
100
AcDbCircle
 62
7
  6
CONTINUOUS
 10
1909.9849306514
 20
509.5820989606
 30
0.0
 40
10.1103411987
100
AcDbArc
 50
213.3116715673
 51
213.5163714594
  0
ARC
  5
259
100
AcDbEntity
  8
TUBETTO
100
AcDbCircle
 62
7
  6
CONTINUOUS
 10
1908.4509884645
 20
508.5774543074
 30
0.0
 40
8.2766892234
100
AcDbArc
 50
212.1558699472
 51
213.3314243239
  0
ARC
  5
25A
100
AcDbEntity
  8
TUBETTO
100
AcDbCircle
 62
7
  6
CONTINUOUS
 10
1908.3520771485
 20
509.4445973817
 30
0.0
 40
8.159092783
100
AcDbArc
 50
146.6553583466
 51
147.8525761383
  0
ARC
  5
25B
100
AcDbEntity
  8
TUBETTO
100
AcDbCircle
 62
7
  6
CONTINUOUS
 10
1907.4606888547
 20
507.9575106499
 30
0.0
 40
7.108349486
100
AcDbArc
 50
209.9922934986
 51
212.1737253131
  0
ARC
  5
25C
100
AcDbEntity
  8
TUBETTO
100
AcDbCircle
 62
7
  6
CONTINUOUS
 10
1907.2537617181
 20
510.1256610031
 30
0.0
 40
6.866779847
100
AcDbArc
 50
147.7877523622
 51
150.0361681615
  0
ARC
  5
25D
100
AcDbEntity
  8
TUBETTO
100
AcDbCircle
 62
7
  6
CONTINUOUS
 10
1906.8531898143
 20
507.5996527291
 30
0.0
 40
6.4033148188
100
AcDbArc
 50
209.7598117953
 51
209.9362857893
  0
ARC
  5
25E
100
AcDbEntity
  8
TUBETTO
100
AcDbCircle
 62
7
  6
CONTINUOUS
 10
1906.8463869707
 20
510.3627541146
 30
0.0
 40
6.395437835
100
AcDbArc
 50
150.0535377697
 51
150.2411219701
  0
ARC
  5
25F
100
AcDbEntity
  8
TUBETTO
100
AcDbCircle
 62
7
  6
CONTINUOUS
 10
1906.6756455808
 20
507.4983079233
 30
0.0
 40
6.1988821846
100
AcDbArc
 50
209.4121973393
 51
209.7611792602
  0
ARC
  5
260
100
AcDbEntity
  8
TUBETTO
100
AcDbCircle
 62
7
  6
CONTINUOUS
 10
1906.672800991
 20
510.4618012065
 30
0.0
 40
6.1955819187
100
AcDbArc
 50
150.2395070372
 51
150.6178443668
  0
ARC
  5
261
100
AcDbEntity
  8
TUBETTO
100
AcDbCircle
 62
7
  6
CONTINUOUS
 10
1903.9840580829
 20
506.203007025
 30
0.0
 40
3.2078496462
100
AcDbArc
 50
198.7218368559
 51
199.0638520416
  0
ARC
  5
262
100
AcDbEntity
  8
TUBETTO
100
AcDbCircle
 62
7
  6
CONTINUOUS
 10
1903.9781119952
 20
511.7573944031
 30
0.0
 40
3.2015875771
100
AcDbArc
 50
160.9358786534
 51
161.3736330932
  0
ARC
  5
263
100
AcDbEntity
  8
CAPPELLO
100
AcDbCircle
 62
7
  6
CONTINUOUS
 10
1853.7880264704
 20
473.97921791
 30
0.0
 40
3.0
100
AcDbArc
 50
90.0
 51
103.57
  0
ARC
  5
264
100
AcDbEntity
  8
CAPPELLO
100
AcDbCircle
 62
7
  6
CONTINUOUS
 10
1943.3501628678
 20
473.97921791
 30
0.0
 40
3.0
100
AcDbArc
 50
76.43
 51
90.0
  0
SPLINE
  5
265
100
AcDbEntity
  8
TUBETTO
100
AcDbSpline
 62
7
  6
CONTINUOUS
 70
0
 71
3
 72
9
 73
5
 74
0
 42
0.0000001
 43
0.0000001
 44
0.0000000001
 40
0.0
 40
0.0
 40
0.0
 40
0.0
 40
0.2343304555
 40
1.0
 40
1.0
 40
1.0
 40
1.0
 10
1901.2757417472
 20
504.45410377
 30
0.0
 10
1901.2624344681
 20
504.4777100813
 30
0.0
 10
1901.2063244375
 20
504.5788279604
 30
0.0
 10
1901.1533903073
 20
504.6817293973
 30
0.0
 10
1901.1151848503
 20
504.7616072771
 30
0.0
  0
SPLINE
  5
266
100
AcDbEntity
  8
TUBETTO
100
AcDbSpline
 62
7
  6
CONTINUOUS
 70
0
 71
3
 72
9
 73
5
 74
0
 42
0.0000001
 43
0.0000001
 44
0.0000000001
 40
0.0
 40
0.0
 40
0.0
 40
0.0
 40
0.2393434673
 40
1.0
 40
1.0
 40
1.0
 40
1.0
 10
1901.1151848503
 20
504.7616072771
 30
0.0
 10
1901.1005134749
 20
504.7922813865
 30
0.0
 10
1901.0406394777
 20
504.9211070515
 30
0.0
 10
1900.9874371697
 20
505.0531179504
 30
0.0
 10
1900.9521424175
 20
505.1552538331
 30
0.0
  0
SPLINE
  5
267
100
AcDbEntity
  8
TUBETTO
100
AcDbSpline
 62
7
  6
CONTINUOUS
 70
0
 71
3
 72
9
 73
5
 74
0
 42
0.0000001
 43
0.0000001
 44
0.0000000001
 40
0.0
 40
0.0
 40
0.0
 40
0.0
 40
0.2417675559
 40
1.0
 40
1.0
 40
1.0
 40
1.0
 10
1900.945942128
 20
505.1733707798
 30
0.0
 10
1900.9247325091
 20
505.2359548288
 30
0.0
 10
1900.8449226798
 20
505.4972953369
 30
0.0
 10
1900.8051626466
 20
505.7719764697
 30
0.0
 10
1900.8051626466
 20
505.97921791
 30
0.0
  0
SPLINE
  5
268
100
AcDbEntity
  8
TUBETTO
100
AcDbSpline
 62
7
  6
CONTINUOUS
 70
0
 71
3
 72
9
 73
5
 74
0
 42
0.0000001
 43
0.0000001
 44
0.0000000001
 40
0.0
 40
0.0
 40
0.0
 40
0.0
 40
0.2565474688
 40
1.0
 40
1.0
 40
1.0
 40
1.0
 10
1900.8051626466
 20
511.97921791
 30
0.0
 10
1900.8051626466
 20
512.048906506
 30
0.0
 10
1900.8180949917
 20
512.3205594241
 30
0.0
 10
1900.8797185373
 20
512.5885924253
 30
0.0
 10
1900.9442186834
 20
512.7799668389
 30
0.0
  0
SPLINE
  5
269
100
AcDbEntity
  8
TUBETTO
100
AcDbSpline
 62
7
  6
CONTINUOUS
 70
0
 71
3
 72
9
 73
5
 74
0
 42
0.0000001
 43
0.0000001
 44
0.0000000001
 40
0.0
 40
0.0
 40
0.0
 40
0.0
 40
0.2602018971
 40
1.0
 40
1.0
 40
1.0
 40
1.0
 10
1900.9521198719
 20
512.8031164904
 30
0.0
 10
1900.9641943621
 20
512.8380576164
 30
0.0
 10
1901.0128991459
 20
512.9715472358
 30
0.0
 10
1901.0698125084
 20
513.1019571337
 30
0.0
 10
1901.1151612573
 20
513.1967789008
 30
0.0
  0
SPLINE
  5
26A
100
AcDbEntity
  8
TUBETTO
100
AcDbSpline
 62
7
  6
CONTINUOUS
 70
0
 71
3
 72
9
 73
5
 74
0
 42
0.0000001
 43
0.0000001
 44
0.0000000001
 40
0.0
 40
0.0
 40
0.0
 40
0.0
 40
0.264761322
 40
1.0
 40
1.0
 40
1.0
 40
1.0
 10
1901.1151612573
 20
513.1967789008
 30
0.0
 10
1901.1282522843
 20
513.2241515263
 30
0.0
 10
1901.1787183125
 20
513.3270487351
 30
0.0
 10
1901.2328394179
 20
513.4281324191
 30
0.0
 10
1901.274177484
 20
513.5015544104
 30
0.0
  0
ENDSEC
  0
SECTION
  2
OBJECTS
  0
DICTIONARY
  5
C
100
AcDbDictionary
280
0
281
1
  3
ACAD_GROUP
350
D
  3
ACAD_MLINESTYLE
350
17
  3
ACAD_LAYOUT
350
1A
  3
ACAD_PLOTSETTINGS
350
19
  3
ACAD_PLOTSTYLENAME
350
E
  0
DICTIONARY
  5
D
102
{ACAD_REACTORS
330
C
102
}
100
AcDbDictionary
280
0
281
1
  0
ACDBDICTIONARYWDFLT
  5
E
102
{ACAD_REACTORS
330
C
102
}
100
AcDbDictionary
281
1
  3
Normal
350
F
100
AcDbDictionaryWithDefault
340
F
  0
DICTIONARY
  5
17
102
{ACAD_REACTORS
330
C
102
}
100
AcDbDictionary
280
0
281
1
  3
Standard
350
18
  0
DICTIONARY
  5
19
102
{ACAD_REACTORS
330
C
102
}
100
AcDbDictionary
281
1
  0
DICTIONARY
  5
1A
102
{ACAD_REACTORS
330
C
102
}
100
AcDbDictionary
281
1
  3
Model
350
26B
  3
Layout1
350
26C
  0
ACDBPLACEHOLDER
  5
F
102
{ACAD_REACTORS
330
E
102
}
  0
MLINESTYLE
  5
18
102
{ACAD_REACTORS
330
17
102
}
100
AcDbMlineStyle
  2
STANDARD
 70
0
  3

 62
256
 51
90.0
 52
90.0
 71
2
 49
0.5
 62
256
  6
BYLAYER
 49
-0.5
 62
256
  6
BYLAYER
  0
LAYOUT
  5
26B
102
{ACAD_REACTORS
330
1A
102
}
100
AcDbPlotSettings
  1

  2
none_device
  4

  6

 40
0.0
 41
0.0
 42
0.0
 43
0.0
 44
2523.0
 45
1782.0
 46
0.0
 47
0.0
 48
0.0
 49
0.0
140
0.0
141
0.0
142
1.0
143
1.0
 70
1024
 72
1
 73
0
 74
0
  7

 75
0
147
1.0
148
0.0
149
0.0
100
AcDbLayout
  1
Model
 70
0
 71
0
 10
0.0
 20
0.0
 11
2523.0
 21
1782.0
 12
0.0
 22
0.0
 32
0.0
 14
0.0
 24
0.0
 34
0.0
 15
0.0
 25
0.0
 35
0.0
146
0.0
 13
0.0
 23
0.0
 33
0.0
 16
1.0
 26
0.0
 36
0.0
 17
0.0
 27
1.0
 37
0.0
 76
0
330
219
345
0
346
0
  0
LAYOUT
  5
26C
102
{ACAD_REACTORS
330
1A
102
}
100
AcDbPlotSettings
  1

  2
none_device
  4

  6

 40
0.0
 41
0.0
 42
0.0
 43
0.0
 44
2523.0
 45
1782.0
 46
0.0
 47
0.0
 48
0.0
 49
0.0
140
0.0
141
0.0
142
1.0
143
1.0
 70
0
 72
1
 73
0
 74
0
  7

 75
0
147
1.0
148
0.0
149
0.0
100
AcDbLayout
  1
Layout1
 70
0
 71
1
 10
0.0
 20
0.0
 11
2523.0
 21
1782.0
 12
0.0
 22
0.0
 32
0.0
 14
0.0
 24
0.0
 34
0.0
 15
0.0
 25
0.0
 35
0.0
146
0.0
 13
0.0
 23
0.0
 33
0.0
 16
1.0
 26
0.0
 36
0.0
 17
0.0
 27
1.0
 37
0.0
 76
0
330
21A
345
0
346
0
  0
ENDSEC
  0
EOF
