  0
SECTION
  2
HEADER
  9
$ACADVER
  1
AC1009
  9
$INSBASE
 10
0.0
 20
0.0
 30
0.0
  9
$EXTMIN
 10
0.0
 20
0.0
 30
0.0
  9
$EXTMAX
 10
0.0
 20
0.0
 30
0.0
  0
ENDSEC
  0
SECTION
  2
TABLES
  0
TABLE
  2
VPORT
 70
0
  0
ENDTAB
  0
TABLE
  2
LTYPE
 70
1
  0
LTYPE
  2
CONTINUOUS
 70
0
  3
Solid line
 72
65
 73
0
 40
0.0
  0
ENDTAB
  0
TABLE
  2
LAYER
 70
1
  0
LAYER
  2
0
 70
64
 62
7
  6
continuous
  0
ENDTAB
  0
TABLE
  2
STYLE
 70
1
  0
STYLE
  2
STANDARD
 70
0
 40
0
 41
1.0
 50
0.0
 71
0
 42
1
 3
ARIAL.TTF
 4

  0
ENDTAB
  0
TABLE
  2
VIEW
 70
0
  0
ENDTAB
  0
ENDSEC
  0
SECTION
  2
BLOCKS
  0
BLOCK
  8
0
  2
FACEFEAT
 70
0
 10
0.0
 20
0.0
 30
0.0
  3
FACEFEAT
  0
POLYLINE
  8
0
 62
0
 70
0
 66
1
 10
0.0
 20
0.0
 30
0.0
  0
VERTEX
  8
0
 10
2.0
 20
-12.0
 30
0.0
  0
VERTEX
  8
0
 10
1.1408567811767332
 20
-10.357305360454047
 30
0.0
  0
SEQEND
  8
0
  0
POLYLINE
  8
0
 62
0
 70
0
 66
1
 10
0.0
 20
0.0
 30
0.0
  0
VERTEX
  8
0
 10
1.1143965534424072
 20
-10.339241051925637
 30
0.0
  0
VERTEX
  8
0
 10
1.109267472724767
 20
-10.335810795589442
 30
0.0
  0
SEQEND
  8
0
  0
POLYLINE
  8
0
 62
0
 70
0
 66
1
 10
0.0
 20
0.0
 30
0.0
  0
VERTEX
  8
0
 10
1.0720761879769347
 20
-10.31161227698611
 30
0.0
  0
VERTEX
  8
0
 10
1.0706219167271753
 20
-10.31068974062347
 30
0.0
  0
SEQEND
  8
0
  0
POLYLINE
  8
0
 62
0
 70
0
 66
1
 10
0.0
 20
0.0
 30
0.0
  0
VERTEX
  8
0
 10
1.0261990662528393
 20
-10.283342037968026
 30
0.0
  0
VERTEX
  8
0
 10
1.010985352116595
 20
-10.274338369635343
 30
0.0
  0
SEQEND
  8
0
  0
POLYLINE
  8
0
 62
0
 70
0
 66
1
 10
0.0
 20
0.0
 30
0.0
  0
VERTEX
  8
0
 10
0.9623357078126504
 20
-10.246743121334402
 30
0.0
  0
VERTEX
  8
0
 10
0.9494300148824226
 20
-10.239720938999108
 30
0.0
  0
SEQEND
  8
0
  0
POLYLINE
  8
0
 62
0
 70
0
 66
1
 10
0.0
 20
0.0
 30
0.0
  0
VERTEX
  8
0
 10
0.8698988775538133
 20
-10.199090251455818
 30
0.0
  0
VERTEX
  8
0
 10
0.8664836711156421
 20
-10.19744458003116
 30
0.0
  0
SEQEND
  8
0
  0
POLYLINE
  8
0
 62
0
 70
0
 66
1
 10
0.0
 20
0.0
 30
0.0
  0
VERTEX
  8
0
 10
0.8201410117172115
 20
-10.175892344329759
 30
0.0
  0
VERTEX
  8
0
 10
0.815936117870114
 20
-10.174007597877008
 30
0.0
  0
SEQEND
  8
0
  0
POLYLINE
  8
0
 62
0
 70
0
 66
1
 10
0.0
 20
0.0
 30
0.0
  0
VERTEX
  8
0
 10
0.7570067135729887
 20
-10.148800170194438
 30
0.0
  0
VERTEX
  8
0
 10
0.7495137604092732
 20
-10.145753744894435
 30
0.0
  0
SEQEND
  8
0
  0
POLYLINE
  8
0
 62
0
 70
0
 66
1
 10
0.0
 20
0.0
 30
0.0
  0
VERTEX
  8
0
 10
0.6649467474136703
 20
-10.113774968842547
 30
0.0
  0
VERTEX
  8
0
 10
0.6565876331448746
 20
-10.110848945972688
 30
0.0
  0
SEQEND
  8
0
  0
POLYLINE
  8
0
 62
0
 70
0
 66
1
 10
0.0
 20
0.0
 30
0.0
  0
VERTEX
  8
0
 10
0.5976327915252777
 20
-10.09137873976157
 30
0.0
  0
VERTEX
  8
0
 10
0.5838932916356172
 20
-10.087130783607982
 30
0.0
  0
SEQEND
  8
0
  0
POLYLINE
  8
0
 62
0
 70
0
 66
1
 10
0.0
 20
0.0
 30
0.0
  0
VERTEX
  8
0
 10
0.482251593291218
 20
-10.059012241912335
 30
0.0
  0
VERTEX
  8
0
 10
0.3923771216978822
 20
-10.03886772277371
 30
0.0
  0
SEQEND
  8
0
  0
POLYLINE
  8
0
 62
0
 70
0
 66
1
 10
0.0
 20
0.0
 30
0.0
  0
VERTEX
  8
0
 10
0.3279584285941326
 20
-10.02707246044653
 30
0.0
  0
VERTEX
  8
0
 10
0.31112700673993876
 20
-10.02434827881037
 30
0.0
  0
SEQEND
  8
0
  0
POLYLINE
  8
0
 62
0
 70
0
 66
1
 10
0.0
 20
0.0
 30
0.0
  0
VERTEX
  8
0
 10
0.2234463931358754
 20
-10.012521288189896
 30
0.0
  0
VERTEX
  8
0
 10
0.21320460269595476
 20
-10.011396527309767
 30
0.0
  0
SEQEND
  8
0
  0
POLYLINE
  8
0
 62
0
 70
0
 66
1
 10
0.0
 20
0.0
 30
0.0
  0
VERTEX
  8
0
 10
0.16382516819069184
 20
-10.006720960555278
 30
0.0
  0
VERTEX
  8
0
 10
0.1555658225253637
 20
-10.006059392901973
 30
0.0
  0
SEQEND
  8
0
  0
POLYLINE
  8
0
 62
0
 70
0
 66
1
 10
0.0
 20
0.0
 30
0.0
  0
VERTEX
  8
0
 10
0.09773891242298172
 20
-10.002389659426935
 30
0.0
  0
VERTEX
  8
0
 10
0.08224339228389968
 20
-10.001691667171624
 30
0.0
  0
SEQEND
  8
0
  0
POLYLINE
  8
0
 62
0
 70
0
 66
1
 10
0.0
 20
0.0
 30
0.0
  0
VERTEX
  8
0
 10
-0.000279498442232645
 20
-10.000000248347181
 30
0.0
  0
VERTEX
  8
0
 10
-0.009802282940128299
 20
-10.00002425608459
 30
0.0
  0
SEQEND
  8
0
  0
POLYLINE
  8
0
 62
0
 70
0
 66
1
 10
0.0
 20
0.0
 30
0.0
  0
VERTEX
  8
0
 10
-0.0909737276411794
 20
-10.002070094535778
 30
0.0
  0
VERTEX
  8
0
 10
-0.9272759474533618
 20
-10.227950508721818
 30
0.0
  0
SEQEND
  8
0
  0
POLYLINE
  8
0
 62
0
 70
0
 66
1
 10
0.0
 20
0.0
 30
0.0
  0
VERTEX
  8
0
 10
-0.976011003774804
 20
-10.254318951650177
 30
0.0
  0
VERTEX
  8
0
 10
-1.9994252565935173
 20
-11.952048770586224
 30
0.0
  0
SEQEND
  8
0
  0
POLYLINE
  8
0
 62
0
 70
0
 66
1
 10
0.0
 20
0.0
 30
0.0
  0
VERTEX
  8
0
 10
-2.0
 20
-12.0
 30
0.0
  0
VERTEX
  8
0
 10
-1.9420296431715238
 20
-12.478038769085662
 30
0.0
  0
SEQEND
  8
0
  0
POLYLINE
  8
0
 62
0
 70
0
 66
1
 10
0.0
 20
0.0
 30
0.0
  0
VERTEX
  8
0
 10
-1.757632753649037
 20
-12.954320058839592
 30
0.0
  0
VERTEX
  8
0
 10
-1.205979992016628
 20
-13.5954975470437
 30
0.0
  0
SEQEND
  8
0
  0
POLYLINE
  8
0
 62
0
 70
0
 66
1
 10
0.0
 20
0.0
 30
0.0
  0
VERTEX
  8
0
 10
-1.1486607902536388
 20
-13.637247166416532
 30
0.0
  0
VERTEX
  8
0
 10
-1.1387369211511564
 20
-13.644164861394543
 30
0.0
  0
SEQEND
  8
0
  0
POLYLINE
  8
0
 62
0
 70
0
 66
1
 10
0.0
 20
0.0
 30
0.0
  0
VERTEX
  8
0
 10
-1.0801224703694436
 20
-13.683251591243565
 30
0.0
  0
VERTEX
  8
0
 10
-1.0702493251687435
 20
-13.689546333001713
 30
0.0
  0
SEQEND
  8
0
  0
POLYLINE
  8
0
 62
0
 70
0
 66
1
 10
0.0
 20
0.0
 30
0.0
  0
VERTEX
  8
0
 10
-0.9930997830360511
 20
-13.736016377341217
 30
0.0
  0
VERTEX
  8
0
 10
-0.9861963804366258
 20
-13.739947337724644
 30
0.0
  0
SEQEND
  8
0
  0
POLYLINE
  8
0
 62
0
 70
0
 66
1
 10
0.0
 20
0.0
 30
0.0
  0
VERTEX
  8
0
 10
-0.905058286696476
 20
-13.783499375023624
 30
0.0
  0
VERTEX
  8
0
 10
-0.7134737612602129
 20
-13.868409973413339
 30
0.0
  0
SEQEND
  8
0
  0
POLYLINE
  8
0
 62
0
 70
0
 66
1
 10
0.0
 20
0.0
 30
0.0
  0
VERTEX
  8
0
 10
-0.6236736789174119
 20
-13.900271346726795
 30
0.0
  0
VERTEX
  8
0
 10
-0.6214422624826794
 20
-13.90100226207436
 30
0.0
  0
SEQEND
  8
0
  0
POLYLINE
  8
0
 62
0
 70
0
 66
1
 10
0.0
 20
0.0
 30
0.0
  0
VERTEX
  8
0
 10
-0.535538746862203
 20
-13.926966006706127
 30
0.0
  0
VERTEX
  8
0
 10
-0.5296133122059545
 20
-13.928602979779484
 30
0.0
  0
SEQEND
  8
0
  0
POLYLINE
  8
0
 62
0
 70
0
 66
1
 10
0.0
 20
0.0
 30
0.0
  0
VERTEX
  8
0
 10
-0.44262833872640733
 20
-13.950405150620462
 30
0.0
  0
VERTEX
  8
0
 10
-0.43622454097330665
 20
-13.951847385443598
 30
0.0
  0
SEQEND
  8
0
  0
POLYLINE
  8
0
 62
0
 70
0
 66
1
 10
0.0
 20
0.0
 30
0.0
  0
VERTEX
  8
0
 10
-0.3975084065068517
 20
-13.960098639832037
 30
0.0
  0
VERTEX
  8
0
 10
-0.3957911191309367
 20
-13.960446123149161
 30
0.0
  0
SEQEND
  8
0
  0
POLYLINE
  8
0
 62
0
 70
0
 66
1
 10
0.0
 20
0.0
 30
0.0
  0
VERTEX
  8
0
 10
-0.3599294000671928
 20
-13.967346143687282
 30
0.0
  0
VERTEX
  8
0
 10
-0.35623500970522604
 20
-13.968018458127514
 30
0.0
  0
SEQEND
  8
0
  0
POLYLINE
  8
0
 62
0
 70
0
 66
1
 10
0.0
 20
0.0
 30
0.0
  0
VERTEX
  8
0
 10
-0.31859153903997783
 20
-13.974461743161367
 30
0.0
  0
VERTEX
  8
0
 10
-0.31686978637324437
 20
-13.974738787029535
 30
0.0
  0
SEQEND
  8
0
  0
POLYLINE
  8
0
 62
0
 70
0
 66
1
 10
0.0
 20
0.0
 30
0.0
  0
VERTEX
  8
0
 10
-0.19834529166107803
 20
-13.990140525719351
 30
0.0
  0
VERTEX
  8
0
 10
-0.17883351965869598
 20
-13.991988651561346
 30
0.0
  0
SEQEND
  8
0
  0
POLYLINE
  8
0
 62
0
 70
0
 66
1
 10
0.0
 20
0.0
 30
0.0
  0
VERTEX
  8
0
 10
-0.13498257329949206
 20
-13.995439635347385
 30
0.0
  0
VERTEX
  8
0
 10
-0.04320735894474829
 20
-13.99953330168422
 30
0.0
  0
SEQEND
  8
0
  0
POLYLINE
  8
0
 62
0
 70
0
 66
1
 10
0.0
 20
0.0
 30
0.0
  0
VERTEX
  8
0
 10
0.044936307717589254
 20
-13.999495150680206
 30
0.0
  0
VERTEX
  8
0
 10
0.0580313904338199
 20
-13.999157988191662
 30
0.0
  0
SEQEND
  8
0
  0
POLYLINE
  8
0
 62
0
 70
0
 66
1
 10
0.0
 20
0.0
 30
0.0
  0
VERTEX
  8
0
 10
0.13618585598052718
 20
-13.995357964564331
 30
0.0
  0
VERTEX
  8
0
 10
0.14804135313990738
 20
-13.994513415231355
 30
0.0
  0
SEQEND
  8
0
  0
POLYLINE
  8
0
 62
0
 70
0
 66
1
 10
0.0
 20
0.0
 30
0.0
  0
VERTEX
  8
0
 10
0.21839910987992528
 20
-13.98803970997968
 30
0.0
  0
VERTEX
  8
0
 10
0.24331307407360378
 20
-13.985144515784752
 30
0.0
  0
SEQEND
  8
0
  0
POLYLINE
  8
0
 62
0
 70
0
 66
1
 10
0.0
 20
0.0
 30
0.0
  0
VERTEX
  8
0
 10
0.3326031316761111
 20
-13.972149924931236
 30
0.0
  0
VERTEX
  8
0
 10
0.3583743115637704
 20
-13.967630051138386
 30
0.0
  0
SEQEND
  8
0
  0
POLYLINE
  8
0
 62
0
 70
0
 66
1
 10
0.0
 20
0.0
 30
0.0
  0
VERTEX
  8
0
 10
0.46760052089468696
 20
-13.94456935263019
 30
0.0
  0
VERTEX
  8
0
 10
0.49043320767476184
 20
-13.938936685072626
 30
0.0
  0
SEQEND
  8
0
  0
POLYLINE
  8
0
 62
0
 70
0
 66
1
 10
0.0
 20
0.0
 30
0.0
  0
VERTEX
  8
0
 10
0.7873734538658603
 20
-13.838489314039577
 30
0.0
  0
VERTEX
  8
0
 10
0.8140232339669315
 20
-13.826845946343663
 30
0.0
  0
SEQEND
  8
0
  0
POLYLINE
  8
0
 62
0
 70
0
 66
1
 10
0.0
 20
0.0
 30
0.0
  0
VERTEX
  8
0
 10
0.8785914435512867
 20
-13.796685021746178
 30
0.0
  0
VERTEX
  8
0
 10
0.8884973568985672
 20
-13.79180703289514
 30
0.0
  0
SEQEND
  8
0
  0
POLYLINE
  8
0
 62
0
 70
0
 66
1
 10
0.0
 20
0.0
 30
0.0
  0
VERTEX
  8
0
 10
0.9729208184016018
 20
-13.747405186060202
 30
0.0
  0
VERTEX
  8
0
 10
0.9867567946838331
 20
-13.739629512635172
 30
0.0
  0
SEQEND
  8
0
  0
POLYLINE
  8
0
 62
0
 70
0
 66
1
 10
0.0
 20
0.0
 30
0.0
  0
VERTEX
  8
0
 10
1.0382590759164452
 20
-13.709391115772089
 30
0.0
  0
VERTEX
  8
0
 10
1.046862741402331
 20
-13.704135647372404
 30
0.0
  0
SEQEND
  8
0
  0
POLYLINE
  8
0
 62
0
 70
0
 66
1
 10
0.0
 20
0.0
 30
0.0
  0
VERTEX
  8
0
 10
1.176638019829808
 20
-13.617257842805804
 30
0.0
  0
VERTEX
  8
0
 10
1.1804531067726443
 20
-13.614475289682474
 30
0.0
  0
SEQEND
  8
0
  0
POLYLINE
  8
0
 62
0
 70
0
 66
1
 10
0.0
 20
0.0
 30
0.0
  0
VERTEX
  8
0
 10
1.230160768324875
 20
-13.576928819004074
 30
0.0
  0
VERTEX
  8
0
 10
1.2327760770069078
 20
-13.574885123011343
 30
0.0
  0
SEQEND
  8
0
  0
POLYLINE
  8
0
 62
0
 70
0
 66
1
 10
0.0
 20
0.0
 30
0.0
  0
VERTEX
  8
0
 10
1.3062256837803647
 20
-13.514521246820111
 30
0.0
  0
VERTEX
  8
0
 10
1.6417381643900226
 20
-13.142232901000263
 30
0.0
  0
SEQEND
  8
0
  0
POLYLINE
  8
0
 62
0
 70
0
 66
1
 10
0.0
 20
0.0
 30
0.0
  0
VERTEX
  8
0
 10
1.6793843359976415
 20
-13.08612528813578
 30
0.0
  0
VERTEX
  8
0
 10
1.6829299874871841
 20
-13.080623273879095
 30
0.0
  0
SEQEND
  8
0
  0
POLYLINE
  8
0
 62
0
 70
0
 66
1
 10
0.0
 20
0.0
 30
0.0
  0
VERTEX
  8
0
 10
1.729275075470381
 20
-13.004792614389014
 30
0.0
  0
VERTEX
  8
0
 10
1.737451038266269
 20
-12.99058788771595
 30
0.0
  0
SEQEND
  8
0
  0
POLYLINE
  8
0
 62
0
 70
0
 66
1
 10
0.0
 20
0.0
 30
0.0
  0
VERTEX
  8
0
 10
1.828206151872699
 20
-12.810964108559148
 30
0.0
  0
VERTEX
  8
0
 10
1.833418556602096
 20
-12.79911007540822
 30
0.0
  0
SEQEND
  8
0
  0
POLYLINE
  8
0
 62
0
 70
0
 66
1
 10
0.0
 20
0.0
 30
0.0
  0
VERTEX
  8
0
 10
1.8659985324863702
 20
-12.719756521215345
 30
0.0
  0
VERTEX
  8
0
 10
1.86811384984907
 20
-12.714248304313617
 30
0.0
  0
SEQEND
  8
0
  0
POLYLINE
  8
0
 62
0
 70
0
 66
1
 10
0.0
 20
0.0
 30
0.0
  0
VERTEX
  8
0
 10
1.897918820827615
 20
-12.630796640003414
 30
0.0
  0
VERTEX
  8
0
 10
1.995194962691474
 20
-12.138553749416769
 30
0.0
  0
SEQEND
  8
0
  0
POLYLINE
  8
0
 62
0
 70
0
 66
1
 10
0.0
 20
0.0
 30
0.0
  0
VERTEX
  8
0
 10
1.9991582141373945
 20
-12.058024679351062
 30
0.0
  0
VERTEX
  8
0
 10
1.9998939792518855
 20
-12.020602723883894
 30
0.0
  0
SEQEND
  8
0
  0
POLYLINE
  8
0
 62
0
 70
0
 66
1
 10
0.0
 20
0.0
 30
0.0
  0
VERTEX
  8
0
 10
1.9819522133028709
 20
-11.731922878378866
 30
0.0
  0
VERTEX
  8
0
 10
1.9603293921029055
 20
-11.603630350701518
 30
0.0
  0
SEQEND
  8
0
  0
POLYLINE
  8
0
 62
0
 70
0
 66
1
 10
0.0
 20
0.0
 30
0.0
  0
VERTEX
  8
0
 10
1.959317015181486
 20
-11.598656564767237
 30
0.0
  0
VERTEX
  8
0
 10
1.9291300724369544
 20
-11.472309903328357
 30
0.0
  0
SEQEND
  8
0
  0
POLYLINE
  8
0
 62
0
 70
0
 66
1
 10
0.0
 20
0.0
 30
0.0
  0
VERTEX
  8
0
 10
1.8896916217693303
 20
-11.344969196437463
 30
0.0
  0
VERTEX
  8
0
 10
1.8416636772882626
 20
-11.220080185126143
 30
0.0
  0
SEQEND
  8
0
  0
POLYLINE
  8
0
 62
0
 70
0
 66
1
 10
0.0
 20
0.0
 30
0.0
  0
VERTEX
  8
0
 10
1.784644430271995
 20
-11.097202098852547
 30
0.0
  0
VERTEX
  8
0
 10
1.7749969551356843
 20
-11.07837886936366
 30
0.0
  0
SEQEND
  8
0
  0
POLYLINE
  8
0
 62
0
 70
0
 66
1
 10
0.0
 20
0.0
 30
0.0
  0
VERTEX
  8
0
 10
1.7204777075835782
 20
-10.980217570124568
 30
0.0
  0
VERTEX
  8
0
 10
1.6483707527372484
 20
-10.867359916002371
 30
0.0
  0
SEQEND
  8
0
  0
POLYLINE
  8
0
 62
0
 70
0
 66
1
 10
0.0
 20
0.0
 30
0.0
  0
VERTEX
  8
0
 10
1.5666479094479056
 20
-10.756772742711
 30
0.0
  0
VERTEX
  8
0
 10
1.4982280901905498
 20
-10.675118006998222
 30
0.0
  0
SEQEND
  8
0
  0
POLYLINE
  8
0
 62
0
 70
0
 66
1
 10
0.0
 20
0.0
 30
0.0
  0
VERTEX
  8
0
 10
1.3866130891105095
 20
-10.558714353642511
 30
0.0
  0
VERTEX
  8
0
 10
1.2828240628508965
 20
-10.465606780536685
 30
0.0
  0
SEQEND
  8
0
  0
POLYLINE
  8
0
 62
0
 70
0
 66
1
 10
0.0
 20
0.0
 30
0.0
  0
VERTEX
  8
0
 10
1.2599171709678185
 20
-10.446742754242287
 30
0.0
  0
VERTEX
  8
0
 10
1.1772623612459057
 20
-10.3831965450677
 30
0.0
  0
SEQEND
  8
0
  0
POLYLINE
  8
0
 62
0
 70
0
 66
1
 10
0.0
 20
0.0
 30
0.0
  0
VERTEX
  8
0
 10
1.0664032085921609
 20
-10.308023538428277
 30
0.0
  0
VERTEX
  8
0
 10
0.9505202499120143
 20
-10.240309408866137
 30
0.0
  0
SEQEND
  8
0
  0
POLYLINE
  8
0
 62
0
 70
0
 66
1
 10
0.0
 20
0.0
 30
0.0
  0
VERTEX
  8
0
 10
0.8294136735032521
 20
-10.180089851749367
 30
0.0
  0
VERTEX
  8
0
 10
0.8272365890314004
 20
-10.179099234019803
 30
0.0
  0
SEQEND
  8
0
  0
POLYLINE
  8
0
 62
0
 70
0
 66
1
 10
0.0
 20
0.0
 30
0.0
  0
VERTEX
  8
0
 10
0.7067481896634876
 20
-10.129035662806055
 30
0.0
  0
VERTEX
  8
0
 10
0.5799478889283423
 20
-10.085930913783768
 30
0.0
  0
SEQEND
  8
0
  0
POLYLINE
  8
0
 62
0
 70
0
 66
1
 10
0.0
 20
0.0
 30
0.0
  0
VERTEX
  8
0
 10
0.4532637454520274
 20
-10.05203899146069
 30
0.0
  0
VERTEX
  8
0
 10
0.32304773476981863
 20
-10.026262446262754
 30
0.0
  0
SEQEND
  8
0
  0
POLYLINE
  8
0
 62
0
 70
0
 66
1
 10
0.0
 20
0.0
 30
0.0
  0
VERTEX
  8
0
 10
0.1952445153609763
 20
-10.009552870029081
 30
0.0
  0
VERTEX
  8
0
 10
0.1821576495616061
 20
-10.008312568425511
 30
0.0
  0
SEQEND
  8
0
  0
POLYLINE
  8
0
 62
0
 70
0
 66
1
 10
0.0
 20
0.0
 30
0.0
  0
VERTEX
  8
0
 10
0.06493191400992404
 20
-10.00105423750974
 30
0.0
  0
VERTEX
  8
0
 10
-0.06813255043965832
 20
-10.001160770793977
 30
0.0
  0
SEQEND
  8
0
  0
POLYLINE
  8
0
 62
0
 70
0
 66
1
 10
0.0
 20
0.0
 30
0.0
  0
VERTEX
  8
0
 10
-0.19706877808775822
 20
-10.009732700622628
 30
0.0
  0
VERTEX
  8
0
 10
-0.3283496334306429
 20
-10.0271374439837
 30
0.0
  0
SEQEND
  8
0
  0
POLYLINE
  8
0
 62
0
 70
0
 66
1
 10
0.0
 20
0.0
 30
0.0
  0
VERTEX
  8
0
 10
-0.45637390464478217
 20
-10.052765295545752
 30
0.0
  0
VERTEX
  8
0
 10
-0.5847931042434946
 20
-10.087405649698548
 30
0.0
  0
SEQEND
  8
0
  0
POLYLINE
  8
0
 62
0
 70
0
 66
1
 10
0.0
 20
0.0
 30
0.0
  0
VERTEX
  8
0
 10
-0.7098306997553292
 20
-10.130203107378028
 30
0.0
  0
VERTEX
  8
0
 10
-0.8317610398465806
 20
-10.181161547730653
 30
0.0
  0
SEQEND
  8
0
  0
POLYLINE
  8
0
 62
0
 70
0
 66
1
 10
0.0
 20
0.0
 30
0.0
  0
VERTEX
  8
0
 10
-0.9055800496188229
 20
-10.216765830424343
 30
0.0
  0
VERTEX
  8
0
 10
-0.9520134829749399
 20
-10.241116741571899
 30
0.0
  0
SEQEND
  8
0
  0
POLYLINE
  8
0
 62
0
 70
0
 66
1
 10
0.0
 20
0.0
 30
0.0
  0
VERTEX
  8
0
 10
-1.0675002742475135
 20
-10.30871552833819
 30
0.0
  0
VERTEX
  8
0
 10
-1.1723374568263079
 20
-10.379622086180817
 30
0.0
  0
SEQEND
  8
0
  0
POLYLINE
  8
0
 62
0
 70
0
 66
1
 10
0.0
 20
0.0
 30
0.0
  0
VERTEX
  8
0
 10
-1.189209971250198
 20
-10.391964143803374
 30
0.0
  0
VERTEX
  8
0
 10
-1.2840374014676956
 20
-10.466622056125882
 30
0.0
  0
SEQEND
  8
0
  0
POLYLINE
  8
0
 62
0
 70
0
 66
1
 10
0.0
 20
0.0
 30
0.0
  0
VERTEX
  8
0
 10
-1.3384440485495872
 20
-10.51387501054991
 30
0.0
  0
VERTEX
  8
0
 10
-1.3804940620220474
 20
-10.552852605868974
 30
0.0
  0
SEQEND
  8
0
  0
POLYLINE
  8
0
 62
0
 70
0
 66
1
 10
0.0
 20
0.0
 30
0.0
  0
VERTEX
  8
0
 10
-1.4771632766269192
 20
-10.651671937497639
 30
0.0
  0
VERTEX
  8
0
 10
-1.5640945019720554
 20
-10.753561704865374
 30
0.0
  0
SEQEND
  8
0
  0
POLYLINE
  8
0
 62
0
 70
0
 66
1
 10
0.0
 20
0.0
 30
0.0
  0
VERTEX
  8
0
 10
-1.5864947385417305
 20
-10.782201257589865
 30
0.0
  0
VERTEX
  8
0
 10
-1.643369262510323
 20
-10.860115246907043
 30
0.0
  0
SEQEND
  8
0
  0
POLYLINE
  8
0
 62
0
 70
0
 66
1
 10
0.0
 20
0.0
 30
0.0
  0
VERTEX
  8
0
 10
-1.716197456827152
 20
-10.973030610456481
 30
0.0
  0
VERTEX
  8
0
 10
-1.7816811463977036
 20
-11.091367908837107
 30
0.0
  0
SEQEND
  8
0
  0
POLYLINE
  8
0
 62
0
 70
0
 66
1
 10
0.0
 20
0.0
 30
0.0
  0
VERTEX
  8
0
 10
-1.7968190025494108
 20
-11.121682740914581
 30
0.0
  0
VERTEX
  8
0
 10
-1.8397409502197417
 20
-11.215555361236165
 30
0.0
  0
SEQEND
  8
0
  0
POLYLINE
  8
0
 62
0
 70
0
 66
1
 10
0.0
 20
0.0
 30
0.0
  0
VERTEX
  8
0
 10
-1.8885272919481029
 20
-11.341619656771716
 30
0.0
  0
VERTEX
  8
0
 10
-1.8890566892333107
 20
-11.343140140408162
 30
0.0
  0
SEQEND
  8
0
  0
POLYLINE
  8
0
 62
0
 70
0
 66
1
 10
0.0
 20
0.0
 30
0.0
  0
VERTEX
  8
0
 10
-1.9287060591452412
 20
-11.470762066264738
 30
0.0
  0
VERTEX
  8
0
 10
-1.9600476331104915
 20
-11.602239682585447
 30
0.0
  0
SEQEND
  8
0
  0
POLYLINE
  8
0
 62
0
 70
0
 66
1
 10
0.0
 20
0.0
 30
0.0
  0
VERTEX
  8
0
 10
-1.9826200176121052
 20
-11.736909000971723
 30
0.0
  0
VERTEX
  8
0
 10
-1.9955069318841234
 20
-11.866014958685096
 30
0.0
  0
SEQEND
  8
0
  0
POLYLINE
  8
0
 62
0
 70
0
 66
1
 10
0.0
 20
0.0
 30
0.0
  0
VERTEX
  8
0
 10
-1.9819521115074166
 20
-12.268077873382971
 30
0.0
  0
VERTEX
  8
0
 10
-1.9612533917447472
 20
-12.391772424835075
 30
0.0
  0
SEQEND
  8
0
  0
POLYLINE
  8
0
 62
0
 70
0
 66
1
 10
0.0
 20
0.0
 30
0.0
  0
VERTEX
  8
0
 10
-1.9591926852415764
 20
-12.40194983174556
 30
0.0
  0
VERTEX
  8
0
 10
-1.928973449772928
 20
-12.528262692571825
 30
0.0
  0
SEQEND
  8
0
  0
POLYLINE
  8
0
 62
0
 70
0
 66
1
 10
0.0
 20
0.0
 30
0.0
  0
VERTEX
  8
0
 10
-1.889692954578351
 20
-12.65502695792031
 30
0.0
  0
VERTEX
  8
0
 10
-1.8416656649678285
 20
-12.779915121263809
 30
0.0
  0
SEQEND
  8
0
  0
POLYLINE
  8
0
 62
0
 70
0
 66
1
 10
0.0
 20
0.0
 30
0.0
  0
VERTEX
  8
0
 10
-1.785833655132555
 20
-12.9004433954056
 30
0.0
  0
VERTEX
  8
0
 10
-1.774843809166334
 20
-12.921916016628142
 30
0.0
  0
SEQEND
  8
0
  0
POLYLINE
  8
0
 62
0
 70
0
 66
1
 10
0.0
 20
0.0
 30
0.0
  0
VERTEX
  8
0
 10
-1.720693172414573
 20
-13.01941890574981
 30
0.0
  0
VERTEX
  8
0
 10
-1.6481282655621587
 20
-13.132992990666684
 30
0.0
  0
SEQEND
  8
0
  0
POLYLINE
  8
0
 62
0
 70
0
 66
1
 10
0.0
 20
0.0
 30
0.0
  0
VERTEX
  8
0
 10
-1.5655531835238552
 20
-13.244605421754867
 30
0.0
  0
VERTEX
  8
0
 10
-1.4998006978001284
 20
-13.323101517487652
 30
0.0
  0
SEQEND
  8
0
  0
POLYLINE
  8
0
 62
0
 70
0
 66
1
 10
0.0
 20
0.0
 30
0.0
  0
VERTEX
  8
0
 10
-1.386589397296194
 20
-13.44130843768454
 30
0.0
  0
VERTEX
  8
0
 10
-1.2848188793821889
 20
-13.53272319150856
 30
0.0
  0
SEQEND
  8
0
  0
POLYLINE
  8
0
 62
0
 70
0
 66
1
 10
0.0
 20
0.0
 30
0.0
  0
VERTEX
  8
0
 10
-1.258831867078773
 20
-13.554136818797337
 30
0.0
  0
VERTEX
  8
0
 10
-1.1781962639441097
 20
-13.61612291478481
 30
0.0
  0
SEQEND
  8
0
  0
POLYLINE
  8
0
 62
0
 70
0
 66
1
 10
0.0
 20
0.0
 30
0.0
  0
VERTEX
  8
0
 10
-1.0667127891147936
 20
-13.691781371033036
 30
0.0
  0
VERTEX
  8
0
 10
-0.9504123734619414
 20
-13.759748855626645
 30
0.0
  0
SEQEND
  8
0
  0
POLYLINE
  8
0
 62
0
 70
0
 66
1
 10
0.0
 20
0.0
 30
0.0
  0
VERTEX
  8
0
 10
-0.8275799146686746
 20
-13.82074474775029
 30
0.0
  0
VERTEX
  8
0
 10
-0.8261395375991548
 20
-13.821398752930566
 30
0.0
  0
SEQEND
  8
0
  0
POLYLINE
  8
0
 62
0
 70
0
 66
1
 10
0.0
 20
0.0
 30
0.0
  0
VERTEX
  8
0
 10
-0.7066363446560219
 20
-13.871006584556495
 30
0.0
  0
VERTEX
  8
0
 10
-0.5798340382338184
 20
-13.91410357618585
 30
0.0
  0
SEQEND
  8
0
  0
POLYLINE
  8
0
 62
0
 70
0
 66
1
 10
0.0
 20
0.0
 30
0.0
  0
VERTEX
  8
0
 10
-0.4531563034370087
 20
-13.947986005744717
 30
0.0
  0
VERTEX
  8
0
 10
-0.3229438977472483
 20
-13.97375454430207
 30
0.0
  0
SEQEND
  8
0
  0
POLYLINE
  8
0
 62
0
 70
0
 66
1
 10
0.0
 20
0.0
 30
0.0
  0
VERTEX
  8
0
 10
-0.1934968110024351
 20
-13.990617623352671
 30
0.0
  0
VERTEX
  8
0
 10
-0.18346182925712334
 20
-13.991567528868622
 30
0.0
  0
SEQEND
  8
0
  0
POLYLINE
  8
0
 62
0
 70
0
 66
1
 10
0.0
 20
0.0
 30
0.0
  0
VERTEX
  8
0
 10
-0.06488936119034741
 20
-13.998947144775304
 30
0.0
  0
VERTEX
  8
0
 10
0.06815982367340052
 20
-13.998838299788664
 30
0.0
  0
SEQEND
  8
0
  0
POLYLINE
  8
0
 62
0
 70
0
 66
1
 10
0.0
 20
0.0
 30
0.0
  0
VERTEX
  8
0
 10
0.19708154706706577
 20
-13.990266034779232
 30
0.0
  0
VERTEX
  8
0
 10
0.32836042206396315
 20
-13.972860760883055
 30
0.0
  0
SEQEND
  8
0
  0
POLYLINE
  8
0
 62
0
 70
0
 66
1
 10
0.0
 20
0.0
 30
0.0
  0
VERTEX
  8
0
 10
0.45639708666922735
 20
-13.947229271515301
 30
0.0
  0
VERTEX
  8
0
 10
0.5848272913628434
 20
-13.91258389710508
 30
0.0
  0
SEQEND
  8
0
  0
POLYLINE
  8
0
 62
0
 70
0
 66
1
 10
0.0
 20
0.0
 30
0.0
  0
VERTEX
  8
0
 10
0.7098840959615214
 20
-13.86977662106805
 30
0.0
  0
VERTEX
  8
0
 10
0.8326579639389942
 20
-13.818428091125549
 30
0.0
  0
SEQEND
  8
0
  0
POLYLINE
  8
0
 62
0
 70
0
 66
1
 10
0.0
 20
0.0
 30
0.0
  0
VERTEX
  8
0
 10
0.9026086458319742
 20
-13.784740130190208
 30
0.0
  0
VERTEX
  8
0
 10
0.9493173129456076
 20
-13.760339825539122
 30
0.0
  0
SEQEND
  8
0
  0
POLYLINE
  8
0
 62
0
 70
0
 66
1
 10
0.0
 20
0.0
 30
0.0
  0
VERTEX
  8
0
 10
1.0675745947111632
 20
-13.691237560282051
 30
0.0
  0
VERTEX
  8
0
 10
1.1739288143179811
 20
-13.619225425179454
 30
0.0
  0
SEQEND
  8
0
  0
POLYLINE
  8
0
 62
0
 70
0
 66
1
 10
0.0
 20
0.0
 30
0.0
  0
VERTEX
  8
0
 10
1.1883791983252707
 20
-13.60864991116516
 30
0.0
  0
VERTEX
  8
0
 10
1.280953411749804
 20
-13.535955051085045
 30
0.0
  0
SEQEND
  8
0
  0
POLYLINE
  8
0
 62
0
 70
0
 66
1
 10
0.0
 20
0.0
 30
0.0
  0
VERTEX
  8
0
 10
1.3436868535947164
 20
-13.481386279851101
 30
0.0
  0
VERTEX
  8
0
 10
1.3820425353003398
 20
-13.445668738325882
 30
0.0
  0
SEQEND
  8
0
  0
POLYLINE
  8
0
 62
0
 70
0
 66
1
 10
0.0
 20
0.0
 30
0.0
  0
VERTEX
  8
0
 10
1.477199156370243
 20
-13.348288753547461
 30
0.0
  0
VERTEX
  8
0
 10
1.5648818375918245
 20
-13.245449729093176
 30
0.0
  0
SEQEND
  8
0
  0
POLYLINE
  8
0
 62
0
 70
0
 66
1
 10
0.0
 20
0.0
 30
0.0
  0
VERTEX
  8
0
 10
1.5871019307059595
 20
-13.217007359482045
 30
0.0
  0
VERTEX
  8
0
 10
1.6433783659146677
 20
-13.139871626019701
 30
0.0
  0
SEQEND
  8
0
  0
POLYLINE
  8
0
 62
0
 70
0
 66
1
 10
0.0
 20
0.0
 30
0.0
  0
VERTEX
  8
0
 10
1.716211471189854
 20
-13.026945969269615
 30
0.0
  0
VERTEX
  8
0
 10
1.7816883549698914
 20
-12.908617956414549
 30
0.0
  0
SEQEND
  8
0
  0
POLYLINE
  8
0
 62
0
 70
0
 66
1
 10
0.0
 20
0.0
 30
0.0
  0
VERTEX
  8
0
 10
1.796825300203843
 20
-12.878304343643169
 30
0.0
  0
VERTEX
  8
0
 10
1.838441289076236
 20
-12.787485342061249
 30
0.0
  0
SEQEND
  8
0
  0
POLYLINE
  8
0
 62
0
 70
0
 66
1
 10
0.0
 20
0.0
 30
0.0
  0
VERTEX
  8
0
 10
1.8889710347714896
 20
-12.657106134170588
 30
0.0
  0
VERTEX
  8
0
 10
1.8902783728729577
 20
-12.653335975495581
 30
0.0
  0
SEQEND
  8
0
  0
POLYLINE
  8
0
 62
0
 70
0
 66
1
 10
0.0
 20
0.0
 30
0.0
  0
VERTEX
  8
0
 10
1.9287087316389295
 20
-12.52922819360957
 30
0.0
  0
VERTEX
  8
0
 10
1.9600491074487822
 20
-12.397753051804708
 30
0.0
  0
SEQEND
  8
0
  0
POLYLINE
  8
0
 62
0
 70
0
 66
1
 10
0.0
 20
0.0
 30
0.0
  0
VERTEX
  8
0
 10
1.9826206002241644
 20
-12.263086601730464
 30
0.0
  0
VERTEX
  8
0
 10
1.9955074695311632
 20
-12.133977033987573
 30
0.0
  0
SEQEND
  8
0
  0
POLYLINE
  8
0
 62
0
 70
0
 66
1
 10
0.0
 20
0.0
 30
0.0
  0
VERTEX
  8
0
 10
2.0
 20
-12.0
 30
0.0
  0
VERTEX
  8
0
 10
-0.006149827412358977
 20
-10.000009690231563
 30
0.0
  0
VERTEX
  8
0
 10
-2.0
 20
-12.0
 30
0.0
  0
SEQEND
  8
0
  0
LINE
  8
0
 62
0
 10
65.0
 20
-15.47302994932
 30
0.0
 11
65.0
 21
-2.3999999999999986
 31
0.0
  0
LINE
  8
0
 62
0
 10
-65.0
 20
-15.47302994932
 30
0.0
 11
-65.0
 21
-2.3999999999999986
 31
0.0
  0
POLYLINE
  8
0
 62
0
 70
0
 66
1
 10
0.0
 20
0.0
 30
0.0
  0
VERTEX
  8
0
 10
-2.0
 20
-12.0
 30
0.0
  0
VERTEX
  8
0
 10
0.006141497791613368
 20
-13.99999033169625
 30
0.0
  0
VERTEX
  8
0
 10
2.0
 20
-12.0
 30
0.0
  0
SEQEND
  8
0
  0
POLYLINE
  8
0
 62
0
 70
0
 66
1
 10
0.0
 20
0.0
 30
0.0
  0
VERTEX
  8
0
 10
104.0
 20
-15.47302994932
 30
0.0
  0
VERTEX
  8
0
 10
103.13083428896988
 20
-15.47302994932
 30
0.0
  0
VERTEX
  8
0
 10
102.26166857793977
 20
-15.47302994932
 30
0.0
  0
VERTEX
  8
0
 10
101.39250286690965
 20
-15.47302994932
 30
0.0
  0
VERTEX
  8
0
 10
98.8285893318903
 20
-15.47302994932
 30
0.0
  0
VERTEX
  8
0
 10
96.26467579687095
 20
-15.47302994932
 30
0.0
  0
VERTEX
  8
0
 10
93.7007622618516
 20
-15.47302994932
 30
0.0
  0
VERTEX
  8
0
 10
89.57066623345942
 20
-15.47302994932
 30
0.0
  0
VERTEX
  8
0
 10
85.44057020506726
 20
-15.47302994932
 30
0.0
  0
VERTEX
  8
0
 10
81.3104741766751
 20
-15.47302994932
 30
0.0
  0
VERTEX
  8
0
 10
75.82129591555282
 20
-15.47302994932
 30
0.0
  0
VERTEX
  8
0
 10
70.33211765443056
 20
-15.47302994932
 30
0.0
  0
VERTEX
  8
0
 10
64.8429393933083
 20
-15.47302994932
 30
0.0
  0
VERTEX
  8
0
 10
58.26992921828088
 20
-15.47302994932
 30
0.0
  0
VERTEX
  8
0
 10
51.69691904325345
 20
-15.47302994932
 30
0.0
  0
VERTEX
  8
0
 10
45.12390886822605
 20
-15.47302994932
 30
0.0
  0
VERTEX
  8
0
 10
37.7966649559696
 20
-15.47302994932
 30
0.0
  0
VERTEX
  8
0
 10
30.46942104371314
 20
-15.47302994932
 30
0.0
  0
VERTEX
  8
0
 10
23.1421771314567
 20
-15.47302994932
 30
0.0
  0
VERTEX
  8
0
 10
15.428118087637795
 20
-15.47302994932
 30
0.0
  0
VERTEX
  8
0
 10
7.714059043818889
 20
-15.47302994932
 30
0.0
  0
VERTEX
  8
0
 10
6.368163355566236e-15
 20
-15.47302994932
 30
0.0
  0
VERTEX
  8
0
 10
-7.714059043818902
 20
-15.47302994932
 30
0.0
  0
VERTEX
  8
0
 10
-15.42811808763781
 20
-15.47302994932
 30
0.0
  0
VERTEX
  8
0
 10
-23.14217713145669
 20
-15.47302994932
 30
0.0
  0
VERTEX
  8
0
 10
-30.469421043713147
 20
-15.47302994932
 30
0.0
  0
VERTEX
  8
0
 10
-37.796664955969604
 20
-15.47302994932
 30
0.0
  0
VERTEX
  8
0
 10
-45.12390886822604
 20
-15.47302994932
 30
0.0
  0
VERTEX
  8
0
 10
-51.69691904325348
 20
-15.47302994932
 30
0.0
  0
VERTEX
  8
0
 10
-58.269929218280886
 20
-15.47302994932
 30
0.0
  0
VERTEX
  8
0
 10
-64.84293939330828
 20
-15.47302994932
 30
0.0
  0
VERTEX
  8
0
 10
-70.33211765443058
 20
-15.47302994932
 30
0.0
  0
VERTEX
  8
0
 10
-75.82129591555284
 20
-15.47302994932
 30
0.0
  0
VERTEX
  8
0
 10
-81.3104741766751
 20
-15.47302994932
 30
0.0
  0
VERTEX
  8
0
 10
-85.44057020506727
 20
-15.47302994932
 30
0.0
  0
VERTEX
  8
0
 10
-89.57066623345943
 20
-15.47302994932
 30
0.0
  0
VERTEX
  8
0
 10
-93.70076226185158
 20
-15.47302994932
 30
0.0
  0
VERTEX
  8
0
 10
-96.26467579687095
 20
-15.47302994932
 30
0.0
  0
VERTEX
  8
0
 10
-98.8285893318903
 20
-15.47302994932
 30
0.0
  0
VERTEX
  8
0
 10
-101.39250286690965
 20
-15.47302994932
 30
0.0
  0
VERTEX
  8
0
 10
-102.26166857793977
 20
-15.47302994932
 30
0.0
  0
VERTEX
  8
0
 10
-103.13083428896988
 20
-15.47302994932
 30
0.0
  0
VERTEX
  8
0
 10
-104.0
 20
-15.47302994932
 30
0.0
  0
SEQEND
  8
0
  0
POLYLINE
  8
0
 62
0
 70
0
 66
1
 10
0.0
 20
0.0
 30
0.0
  0
VERTEX
  8
0
 10
4.868347502413
 20
-43.0
 30
0.0
  0
VERTEX
  8
0
 10
2.3423186823860095e-11
 20
-43.0
 30
0.0
  0
VERTEX
  8
0
 10
-4.868347502413
 20
-43.0
 30
0.0
  0
SEQEND
  8
0
  0
POLYLINE
  8
0
 62
0
 70
0
 66
1
 10
0.0
 20
0.0
 30
0.0
  0
VERTEX
  8
0
 10
5.385985592617987
 20
-42.93185165257815
 30
0.0
  0
VERTEX
  8
0
 10
4.868347502413
 20
-43.0
 30
0.0
  0
SEQEND
  8
0
  0
POLYLINE
  8
0
 62
0
 70
0
 66
1
 10
0.0
 20
0.0
 30
0.0
  0
VERTEX
  8
0
 10
-5.3859855926179865
 20
-42.93185165257815
 30
0.0
  0
VERTEX
  8
0
 10
-4.868347502413001
 20
-43.0
 30
0.0
  0
SEQEND
  8
0
  0
LINE
  8
0
 62
0
 10
-5.385985592618
 20
-42.93185165258
 30
0.0
 11
-104.25881904510089
 21
-16.43895577561331
 31
0.0
  0
LINE
  8
0
 62
0
 10
5.385985592618
 20
-42.93185165258
 30
0.0
 11
104.2588190451034
 21
-16.43895577561264
 31
0.0
  0
POLYLINE
  8
0
 62
0
 70
0
 66
1
 10
0.0
 20
0.0
 30
0.0
  0
VERTEX
  8
0
 10
104.2588190451
 20
-16.43895577559
 30
0.0
  0
VERTEX
  8
0
 10
103.38749028946063
 20
-16.43895577559
 30
0.0
  0
VERTEX
  8
0
 10
102.51616153382126
 20
-16.43895577559
 30
0.0
  0
VERTEX
  8
0
 10
101.6448327781819
 20
-16.43895577559
 30
0.0
  0
VERTEX
  8
0
 10
99.07453857342357
 20
-16.43895577559
 30
0.0
  0
VERTEX
  8
0
 10
96.50424436866524
 20
-16.43895577559
 30
0.0
  0
VERTEX
  8
0
 10
93.93395016390691
 20
-16.43895577559
 30
0.0
  0
VERTEX
  8
0
 10
89.79357579407014
 20
-16.43895577559
 30
0.0
  0
VERTEX
  8
0
 10
85.65320142423336
 20
-16.43895577559
 30
0.0
  0
VERTEX
  8
0
 10
81.5128270543966
 20
-16.43895577559
 30
0.0
  0
VERTEX
  8
0
 10
76.00998817908271
 20
-16.43895577559
 30
0.0
  0
VERTEX
  8
0
 10
70.50714930376884
 20
-16.43895577559
 30
0.0
  0
VERTEX
  8
0
 10
65.00431042845496
 20
-16.43895577559
 30
0.0
  0
VERTEX
  8
0
 10
58.41494236672626
 20
-16.43895577559
 30
0.0
  0
VERTEX
  8
0
 10
51.82557430499756
 20
-16.43895577559
 30
0.0
  0
VERTEX
  8
0
 10
45.236206243268875
 20
-16.43895577559
 30
0.0
  0
VERTEX
  8
0
 10
37.890727424545254
 20
-16.43895577559
 30
0.0
  0
VERTEX
  8
0
 10
30.545248605821634
 20
-16.43895577559
 30
0.0
  0
VERTEX
  8
0
 10
23.199769787098035
 20
-16.43895577559
 30
0.0
  0
VERTEX
  8
0
 10
15.466513191398684
 20
-16.43895577559
 30
0.0
  0
VERTEX
  8
0
 10
7.733256595699334
 20
-16.43895577559
 30
0.0
  0
VERTEX
  8
0
 10
6.384011451323241e-15
 20
-16.43895577559
 30
0.0
  0
VERTEX
  8
0
 10
-7.733256595699345
 20
-16.43895577559
 30
0.0
  0
VERTEX
  8
0
 10
-15.466513191398695
 20
-16.43895577559
 30
0.0
  0
VERTEX
  8
0
 10
-23.199769787098024
 20
-16.43895577559
 30
0.0
  0
VERTEX
  8
0
 10
-30.545248605821644
 20
-16.43895577559
 30
0.0
  0
VERTEX
  8
0
 10
-37.89072742454526
 20
-16.43895577559
 30
0.0
  0
VERTEX
  8
0
 10
-45.23620624326886
 20
-16.43895577559
 30
0.0
  0
VERTEX
  8
0
 10
-51.82557430499758
 20
-16.43895577559
 30
0.0
  0
VERTEX
  8
0
 10
-58.414942366726265
 20
-16.43895577559
 30
0.0
  0
VERTEX
  8
0
 10
-65.00431042845494
 20
-16.43895577559
 30
0.0
  0
VERTEX
  8
0
 10
-70.50714930376886
 20
-16.43895577559
 30
0.0
  0
VERTEX
  8
0
 10
-76.00998817908273
 20
-16.43895577559
 30
0.0
  0
VERTEX
  8
0
 10
-81.5128270543966
 20
-16.43895577559
 30
0.0
  0
VERTEX
  8
0
 10
-85.65320142423339
 20
-16.43895577559
 30
0.0
  0
VERTEX
  8
0
 10
-89.79357579407015
 20
-16.43895577559
 30
0.0
  0
VERTEX
  8
0
 10
-93.93395016390691
 20
-16.43895577559
 30
0.0
  0
VERTEX
  8
0
 10
-96.50424436866525
 20
-16.43895577559
 30
0.0
  0
VERTEX
  8
0
 10
-99.07453857342357
 20
-16.43895577559
 30
0.0
  0
VERTEX
  8
0
 10
-101.6448327781819
 20
-16.43895577559
 30
0.0
  0
VERTEX
  8
0
 10
-102.51616153382126
 20
-16.43895577559
 30
0.0
  0
VERTEX
  8
0
 10
-103.38749028946063
 20
-16.43895577559
 30
0.0
  0
VERTEX
  8
0
 10
-104.2588190451
 20
-16.43895577559
 30
0.0
  0
SEQEND
  8
0
  0
LINE
  8
0
 62
0
 10
104.2588190451
 20
-16.4389557756
 30
0.0
 11
104.00000000000104
 21
-15.473029949319722
 31
0.0
  0
LINE
  8
0
 62
0
 10
-104.2588190451025
 20
-16.43895577560933
 30
0.0
 11
-103.99999999999854
 21
-15.47302994931039
 31
0.0
  0
POLYLINE
  8
0
 62
0
 70
0
 66
1
 10
0.0
 20
0.0
 30
0.0
  0
VERTEX
  8
0
 10
-1.9817091531083517
 20
-12.269867757980013
 30
0.0
  0
VERTEX
  8
0
 10
-1.96209516845606
 20
-12.387534744656802
 30
0.0
  0
SEQEND
  8
0
  0
POLYLINE
  8
0
 62
0
 70
0
 66
1
 10
0.0
 20
0.0
 30
0.0
  0
VERTEX
  8
0
 10
-1.9585326162808656
 20
-12.40515328088644
 30
0.0
  0
VERTEX
  8
0
 10
-1.9289721349030093
 20
-12.528267493375033
 30
0.0
  0
SEQEND
  8
0
  0
POLYLINE
  8
0
 62
0
 70
0
 66
1
 10
0.0
 20
0.0
 30
0.0
  0
VERTEX
  8
0
 10
-1.88969021576669
 20
-12.655034859362836
 30
0.0
  0
VERTEX
  8
0
 10
-1.8416621630563275
 20
-12.779923390477844
 30
0.0
  0
SEQEND
  8
0
  0
POLYLINE
  8
0
 62
0
 70
0
 66
1
 10
0.0
 20
0.0
 30
0.0
  0
VERTEX
  8
0
 10
-1.7846460895671834
 20
-12.902794621557591
 30
0.0
  0
VERTEX
  8
0
 10
-1.7764422035089207
 20
-12.91883217192456
 30
0.0
  0
SEQEND
  8
0
  0
POLYLINE
  8
0
 62
0
 70
0
 66
1
 10
0.0
 20
0.0
 30
0.0
  0
VERTEX
  8
0
 10
-1.7204805090075659
 20
-13.019777705173755
 30
0.0
  0
VERTEX
  8
0
 10
-1.648372288773781
 20
-13.13263784745555
 30
0.0
  0
SEQEND
  8
0
  0
POLYLINE
  8
0
 62
0
 70
0
 66
1
 10
0.0
 20
0.0
 30
0.0
  0
VERTEX
  8
0
 10
-1.566544052581755
 20
-13.243358110263294
 30
0.0
  0
VERTEX
  8
0
 10
-1.4982299419294425
 20
-13.324879898853457
 30
0.0
  0
SEQEND
  8
0
  0
POLYLINE
  8
0
 62
0
 70
0
 66
1
 10
0.0
 20
0.0
 30
0.0
  0
VERTEX
  8
0
 10
-1.382088984636325
 20
-13.445624206832935
 30
0.0
  0
VERTEX
  8
0
 10
-1.2838288511528537
 20
-13.533552580617108
 30
0.0
  0
SEQEND
  8
0
  0
POLYLINE
  8
0
 62
0
 70
0
 66
1
 10
0.0
 20
0.0
 30
0.0
  0
VERTEX
  8
0
 10
-1.2599174947055025
 20
-13.553256983521585
 30
0.0
  0
VERTEX
  8
0
 10
-1.179490421605808
 20
-13.615178520597707
 30
0.0
  0
SEQEND
  8
0
  0
POLYLINE
  8
0
 62
0
 70
0
 66
1
 10
0.0
 20
0.0
 30
0.0
  0
VERTEX
  8
0
 10
-1.0664025069835574
 20
-13.691976903316739
 30
0.0
  0
VERTEX
  8
0
 10
-0.9510519581265506
 20
-13.759403210674853
 30
0.0
  0
SEQEND
  8
0
  0
POLYLINE
  8
0
 62
0
 70
0
 66
1
 10
0.0
 20
0.0
 30
0.0
  0
VERTEX
  8
0
 10
-0.7067508756077384
 20
-13.870963322626388
 30
0.0
  0
VERTEX
  8
0
 10
-0.5799539367058686
 20
-13.914067251579905
 30
0.0
  0
SEQEND
  8
0
  0
POLYLINE
  8
0
 62
0
 70
0
 66
1
 10
0.0
 20
0.0
 30
0.0
  0
VERTEX
  8
0
 10
-0.4532654907374213
 20
-13.94796060243695
 30
0.0
  0
VERTEX
  8
0
 10
-0.3230513261800557
 20
-13.973736964165141
 30
0.0
  0
SEQEND
  8
0
  0
POLYLINE
  8
0
 62
0
 70
0
 66
1
 10
0.0
 20
0.0
 30
0.0
  0
VERTEX
  8
0
 10
-0.1945857223839343
 20
-13.99051157356654
 30
0.0
  0
VERTEX
  8
0
 10
-0.18247096114630743
 20
-13.991658719713907
 30
0.0
  0
SEQEND
  8
0
  0
POLYLINE
  8
0
 62
0
 70
0
 66
1
 10
0.0
 20
0.0
 30
0.0
  0
VERTEX
  8
0
 10
-0.06493064969051464
 20
-13.998945803566624
 30
0.0
  0
VERTEX
  8
0
 10
0.06813433309250176
 20
-13.998839168446674
 30
0.0
  0
SEQEND
  8
0
  0
POLYLINE
  8
0
 62
0
 70
0
 66
1
 10
0.0
 20
0.0
 30
0.0
  0
VERTEX
  8
0
 10
0.19707214056500102
 20
-13.990266966209546
 30
0.0
  0
VERTEX
  8
0
 10
0.32835411229499806
 20
-13.972861810588594
 30
0.0
  0
SEQEND
  8
0
  0
POLYLINE
  8
0
 62
0
 70
0
 66
1
 10
0.0
 20
0.0
 30
0.0
  0
VERTEX
  8
0
 10
0.4563786908385748
 20
-13.947233582722678
 30
0.0
  0
VERTEX
  8
0
 10
0.5847986577732013
 20
-13.912592652272481
 30
0.0
  0
SEQEND
  8
0
  0
POLYLINE
  8
0
 62
0
 70
0
 66
1
 10
0.0
 20
0.0
 30
0.0
  0
VERTEX
  8
0
 10
0.7098360437445875
 20
-13.869794863888723
 30
0.0
  0
VERTEX
  8
0
 10
0.8315386398822362
 20
-13.818940119317055
 30
0.0
  0
SEQEND
  8
0
  0
POLYLINE
  8
0
 62
0
 70
0
 66
1
 10
0.0
 20
0.0
 30
0.0
  0
VERTEX
  8
0
 10
0.9057125810482851
 20
-13.783166863266693
 30
0.0
  0
VERTEX
  8
0
 10
0.9495063494716101
 20
-13.76023787445055
 30
0.0
  0
SEQEND
  8
0
  0
POLYLINE
  8
0
 62
0
 70
0
 66
1
 10
0.0
 20
0.0
 30
0.0
  0
VERTEX
  8
0
 10
1.0675044517120582
 20
-13.691281834938618
 30
0.0
  0
VERTEX
  8
0
 10
1.1718161332642278
 20
-13.620754949607404
 30
0.0
  0
SEQEND
  8
0
  0
POLYLINE
  8
0
 62
0
 70
0
 66
1
 10
0.0
 20
0.0
 30
0.0
  0
VERTEX
  8
0
 10
1.189214347740876
 20
-13.608032618782035
 30
0.0
  0
VERTEX
  8
0
 10
1.2834143016256376
 20
-13.533899483356594
 30
0.0
  0
SEQEND
  8
0
  0
POLYLINE
  8
0
 62
0
 70
0
 66
1
 10
0.0
 20
0.0
 30
0.0
  0
VERTEX
  8
0
 10
1.3424763009556377
 20
-13.482483397748092
 30
0.0
  0
VERTEX
  8
0
 10
1.380493856268524
 20
-13.447147590495737
 30
0.0
  0
SEQEND
  8
0
  0
POLYLINE
  8
0
 62
0
 70
0
 66
1
 10
0.0
 20
0.0
 30
0.0
  0
VERTEX
  8
0
 10
1.4771660524435744
 20
-13.34832502103102
 30
0.0
  0
VERTEX
  8
0
 10
1.5632272467250927
 20
-13.247525719900228
 30
0.0
  0
SEQEND
  8
0
  0
POLYLINE
  8
0
 62
0
 70
0
 66
1
 10
0.0
 20
0.0
 30
0.0
  0
VERTEX
  8
0
 10
1.586495640080915
 20
-13.217797573003999
 30
0.0
  0
VERTEX
  8
0
 10
1.643280413027217
 20
-13.140012808416518
 30
0.0
  0
SEQEND
  8
0
  0
POLYLINE
  8
0
 62
0
 70
0
 66
1
 10
0.0
 20
0.0
 30
0.0
  0
VERTEX
  8
0
 10
1.7161976073546683
 20
-13.026969137378037
 30
0.0
  0
VERTEX
  8
0
 10
1.7816803562359762
 20
-12.908633640605586
 30
0.0
  0
SEQEND
  8
0
  0
POLYLINE
  8
0
 62
0
 70
0
 66
1
 10
0.0
 20
0.0
 30
0.0
  0
VERTEX
  8
0
 10
1.7968182078103245
 20
-12.878318883832723
 30
0.0
  0
VERTEX
  8
0
 10
1.8397401892217782
 20
-12.784446423646283
 30
0.0
  0
SEQEND
  8
0
  0
POLYLINE
  8
0
 62
0
 70
0
 66
1
 10
0.0
 20
0.0
 30
0.0
  0
VERTEX
  8
0
 10
1.928706069767468
 20
-12.529237893930206
 30
0.0
  0
VERTEX
  8
0
 10
1.9600471382496196
 20
-12.3977627555562
 30
0.0
  0
SEQEND
  8
0
  0
POLYLINE
  8
0
 62
0
 70
0
 66
1
 10
0.0
 20
0.0
 30
0.0
  0
VERTEX
  8
0
 10
1.98261985223373
 20
-12.2630922449315
 30
0.0
  0
VERTEX
  8
0
 10
1.9953529702587889
 20
-12.136257805941263
 30
0.0
  0
SEQEND
  8
0
  0
POLYLINE
  8
0
 62
0
 70
0
 66
1
 10
0.0
 20
0.0
 30
0.0
  0
VERTEX
  8
0
 10
1.981888812349675
 20
-11.731454628931356
 30
0.0
  0
VERTEX
  8
0
 10
1.961729584709391
 20
-11.610618929327655
 30
0.0
  0
SEQEND
  8
0
  0
POLYLINE
  8
0
 62
0
 70
0
 66
1
 10
0.0
 20
0.0
 30
0.0
  0
VERTEX
  8
0
 10
1.958807329085123
 20
-11.596176722541504
 30
0.0
  0
VERTEX
  8
0
 10
1.9289727188268424
 20
-11.47173463873029
 30
0.0
  0
SEQEND
  8
0
  0
POLYLINE
  8
0
 62
0
 70
0
 66
1
 10
0.0
 20
0.0
 30
0.0
  0
VERTEX
  8
0
 10
1.8896918093460253
 20
-11.344969737958799
 30
0.0
  0
VERTEX
  8
0
 10
1.841664147686576
 20
-11.220081295905452
 30
0.0
  0
SEQEND
  8
0
  0
POLYLINE
  8
0
 62
0
 70
0
 66
1
 10
0.0
 20
0.0
 30
0.0
  0
VERTEX
  8
0
 10
1.7845334331867504
 20
-11.096982732298313
 30
0.0
  0
VERTEX
  8
0
 10
1.7764696319625852
 20
-11.081220880172722
 30
0.0
  0
SEQEND
  8
0
  0
POLYLINE
  8
0
 62
0
 70
0
 66
1
 10
0.0
 20
0.0
 30
0.0
  0
VERTEX
  8
0
 10
1.720690604413117
 20
-10.980576759991756
 30
0.0
  0
VERTEX
  8
0
 10
1.6479374226227195
 20
-10.866729380552092
 30
0.0
  0
SEQEND
  8
0
  0
POLYLINE
  8
0
 62
0
 70
0
 66
1
 10
0.0
 20
0.0
 30
0.0
  0
VERTEX
  8
0
 10
1.5660681793873519
 20
-10.756042602749961
 30
0.0
  0
VERTEX
  8
0
 10
1.5005246226693558
 20
-10.677719548927953
 30
0.0
  0
SEQEND
  8
0
  0
POLYLINE
  8
0
 62
0
 70
0
 66
1
 10
0.0
 20
0.0
 30
0.0
  0
VERTEX
  8
0
 10
1.3850183387923158
 20
-10.55718189093972
 30
0.0
  0
VERTEX
  8
0
 10
1.2855986625898583
 20
-10.467930834538706
 30
0.0
  0
SEQEND
  8
0
  0
POLYLINE
  8
0
 62
0
 70
0
 66
1
 10
0.0
 20
0.0
 30
0.0
  0
VERTEX
  8
0
 10
1.2624653362706304
 20
-10.448813145380385
 30
0.0
  0
VERTEX
  8
0
 10
1.1784941285325374
 20
-10.384094312513017
 30
0.0
  0
SEQEND
  8
0
  0
POLYLINE
  8
0
 62
0
 70
0
 66
1
 10
0.0
 20
0.0
 30
0.0
  0
VERTEX
  8
0
 10
1.0661916158464377
 20
-10.30789022237312
 30
0.0
  0
VERTEX
  8
0
 10
0.9504152443558284
 20
-10.240252694939205
 30
0.0
  0
SEQEND
  8
0
  0
POLYLINE
  8
0
 62
0
 70
0
 66
1
 10
0.0
 20
0.0
 30
0.0
  0
VERTEX
  8
0
 10
0.706626713069259
 20
-10.128989780695402
 30
0.0
  0
VERTEX
  8
0
 10
0.579836323226302
 20
-10.085897116009644
 30
0.0
  0
SEQEND
  8
0
  0
POLYLINE
  8
0
 62
0
 70
0
 66
1
 10
0.0
 20
0.0
 30
0.0
  0
VERTEX
  8
0
 10
0.45315796893778476
 20
-10.05201438175325
 30
0.0
  0
VERTEX
  8
0
 10
0.3229448915116375
 20
-10.026245618298386
 30
0.0
  0
SEQEND
  8
0
  0
POLYLINE
  8
0
 62
0
 70
0
 66
1
 10
0.0
 20
0.0
 30
0.0
  0
VERTEX
  8
0
 10
0.19349676172168806
 20
-10.009382372081083
 30
0.0
  0
VERTEX
  8
0
 10
0.18345747731502107
 20
-10.008432072083279
 30
0.0
  0
SEQEND
  8
0
  0
POLYLINE
  8
0
 62
0
 70
0
 66
1
 10
0.0
 20
0.0
 30
0.0
  0
VERTEX
  8
0
 10
0.06488740907450544
 20
-10.00105279228555
 30
0.0
  0
VERTEX
  8
0
 10
-0.06816122905497041
 20
-10.001161748566249
 30
0.0
  0
SEQEND
  8
0
  0
POLYLINE
  8
0
 62
0
 70
0
 66
1
 10
0.0
 20
0.0
 30
0.0
  0
VERTEX
  8
0
 10
-0.1970847233633948
 20
-10.009734279748438
 30
0.0
  0
VERTEX
  8
0
 10
-0.32836448275674823
 20
-10.027139915437704
 30
0.0
  0
SEQEND
  8
0
  0
POLYLINE
  8
0
 62
0
 70
0
 66
1
 10
0.0
 20
0.0
 30
0.0
  0
VERTEX
  8
0
 10
-0.4564022532049013
 20
-10.052771939755822
 30
0.0
  0
VERTEX
  8
0
 10
-0.5848327370550738
 20
-10.087417768118348
 30
0.0
  0
SEQEND
  8
0
  0
POLYLINE
  8
0
 62
0
 70
0
 66
1
 10
0.0
 20
0.0
 30
0.0
  0
VERTEX
  8
0
 10
-0.7098895376915847
 20
-10.130225444974046
 30
0.0
  0
VERTEX
  8
0
 10
-0.8304367586493645
 20
-10.18055666213315
 30
0.0
  0
SEQEND
  8
0
  0
POLYLINE
  8
0
 62
0
 70
0
 66
1
 10
0.0
 20
0.0
 30
0.0
  0
VERTEX
  8
0
 10
-0.9049749213742992
 20
-10.21645860730517
 30
0.0
  0
VERTEX
  8
0
 10
-0.9489256603433099
 20
-10.239449031926757
 30
0.0
  0
SEQEND
  8
0
  0
POLYLINE
  8
0
 62
0
 70
0
 66
1
 10
0.0
 20
0.0
 30
0.0
  0
VERTEX
  8
0
 10
-1.0675830281641567
 20
-10.308767763536496
 30
0.0
  0
VERTEX
  8
0
 10
-1.1695274125682227
 20
-10.377592792490507
 30
0.0
  0
SEQEND
  8
0
  0
POLYLINE
  8
0
 62
0
 70
0
 66
1
 10
0.0
 20
0.0
 30
0.0
  0
VERTEX
  8
0
 10
-1.18847918791892
 20
-10.391423963220022
 30
0.0
  0
VERTEX
  8
0
 10
-1.281120645455773
 20
-10.46418442680965
 30
0.0
  0
SEQEND
  8
0
  0
POLYLINE
  8
0
 62
0
 70
0
 66
1
 10
0.0
 20
0.0
 30
0.0
  0
VERTEX
  8
0
 10
-1.344229347378627
 20
-10.51910598111966
 30
0.0
  0
VERTEX
  8
0
 10
-1.3822875475643952
 20
-10.554565516001926
 30
0.0
  0
SEQEND
  8
0
  0
POLYLINE
  8
0
 62
0
 70
0
 66
1
 10
0.0
 20
0.0
 30
0.0
  0
VERTEX
  8
0
 10
-1.4771997105651309
 20
-10.651711853633241
 30
0.0
  0
VERTEX
  8
0
 10
-1.5641130250833586
 20
-10.753584949283141
 30
0.0
  0
SEQEND
  8
0
  0
POLYLINE
  8
0
 62
0
 70
0
 66
1
 10
0.0
 20
0.0
 30
0.0
  0
VERTEX
  8
0
 10
-1.5874765627491243
 20
-10.783481380609375
 30
0.0
  0
VERTEX
  8
0
 10
-1.643379242366675
 20
-10.860129637025633
 30
0.0
  0
SEQEND
  8
0
  0
POLYLINE
  8
0
 62
0
 70
0
 66
1
 10
0.0
 20
0.0
 30
0.0
  0
VERTEX
  8
0
 10
-1.7162107606349064
 20
-10.973052843344151
 30
0.0
  0
VERTEX
  8
0
 10
-1.7808781936897282
 20
-11.089795365377041
 30
0.0
  0
SEQEND
  8
0
  0
POLYLINE
  8
0
 62
0
 70
0
 66
1
 10
0.0
 20
0.0
 30
0.0
  0
VERTEX
  8
0
 10
-1.796824504579283
 20
-11.121694029811962
 30
0.0
  0
VERTEX
  8
0
 10
-1.8384408283452163
 20
-11.212513582239373
 30
0.0
  0
SEQEND
  8
0
  0
POLYLINE
  8
0
 62
0
 70
0
 66
1
 10
0.0
 20
0.0
 30
0.0
  0
VERTEX
  8
0
 10
-1.9287082330018535
 20
-11.470769989400834
 30
0.0
  0
VERTEX
  8
0
 10
-1.9600487072848927
 20
-11.602244976250779
 30
0.0
  0
SEQEND
  8
0
  0
POLYLINE
  8
0
 62
0
 70
0
 66
1
 10
0.0
 20
0.0
 30
0.0
  0
VERTEX
  8
0
 10
-1.982620435247198
 20
-11.736912155368575
 30
0.0
  0
VERTEX
  8
0
 10
-1.9953527306914796
 20
-11.863738695278943
 30
0.0
  0
SEQEND
  8
0
  0
ARC
  8
0
 62
0
 10
62.6
 20
-2.4
 30
0.0
 40
2.4
 50
-0.0
 51
90.0
  0
ARC
  8
0
 62
0
 10
-62.6
 20
-2.4
 30
0.0
 40
2.4
 50
90.0
 51
-180.0
  0
POLYLINE
  8
0
 62
0
 70
0
 66
1
 10
0.0
 20
0.0
 30
0.0
  0
VERTEX
  8
0
 10
-62.6
 20
0.0
 30
0.0
  0
VERTEX
  8
0
 10
-62.5993956595396
 20
0.0
 30
0.0
  0
SEQEND
  8
0
  0
POLYLINE
  8
0
 62
0
 70
0
 66
1
 10
0.0
 20
0.0
 30
0.0
  0
VERTEX
  8
0
 10
62.6
 20
0.0
 30
0.0
  0
VERTEX
  8
0
 10
62.5993956595396
 20
0.0
 30
0.0
  0
SEQEND
  8
0
  0
POLYLINE
  8
0
 62
0
 70
0
 66
1
 10
0.0
 20
0.0
 30
0.0
  0
VERTEX
  8
0
 10
62.599395659539596
 20
0.0
 30
0.0
  0
VERTEX
  8
0
 10
61.723720959811416
 20
0.0
 30
0.0
  0
VERTEX
  8
0
 10
60.61351264839961
 20
0.0
 30
0.0
  0
VERTEX
  8
0
 10
58.09610266688614
 20
0.0
 30
0.0
  0
VERTEX
  8
0
 10
55.14559176258881
 20
0.0
 30
0.0
  0
VERTEX
  8
0
 10
51.11232855133182
 20
0.0
 30
0.0
  0
VERTEX
  8
0
 10
46.51584895738065
 20
0.0
 30
0.0
  0
VERTEX
  8
0
 10
41.16841418650388
 20
0.0
 30
0.0
  0
VERTEX
  8
0
 10
35.22282211249378
 20
0.0
 30
0.0
  0
VERTEX
  8
0
 10
28.82861206113367
 20
0.0
 30
0.0
  0
VERTEX
  8
0
 10
21.915090985892675
 20
0.0
 30
0.0
  0
VERTEX
  8
0
 10
14.793845501099323
 20
0.0
 30
0.0
  0
VERTEX
  8
0
 10
7.354651035008177
 20
0.0
 30
0.0
  0
VERTEX
  8
0
 10
-0.13753492796593253
 20
0.0
 30
0.0
  0
VERTEX
  8
0
 10
-7.626017687629181
 20
0.0
 30
0.0
  0
VERTEX
  8
0
 10
-15.060477346200699
 20
0.0
 30
0.0
  0
VERTEX
  8
0
 10
-22.170798398221848
 20
0.0
 30
0.0
  0
VERTEX
  8
0
 10
-29.07148790992263
 20
0.0
 30
0.0
  0
VERTEX
  8
0
 10
-35.448098570822495
 20
0.0
 30
0.0
  0
VERTEX
  8
0
 10
-41.37360772263063
 20
0.0
 30
0.0
  0
VERTEX
  8
0
 10
-46.69764819564975
 20
0.0
 30
0.0
  0
VERTEX
  8
0
 10
-51.268090585947405
 20
0.0
 30
0.0
  0
VERTEX
  8
0
 10
-55.27333441420394
 20
0.0
 30
0.0
  0
VERTEX
  8
0
 10
-58.19352308735409
 20
0.0
 30
0.0
  0
VERTEX
  8
0
 10
-60.679689698461665
 20
0.0
 30
0.0
  0
VERTEX
  8
0
 10
-61.75723034617995
 20
0.0
 30
0.0
  0
VERTEX
  8
0
 10
-62.60000000000001
 20
0.0
 30
0.0
  0
SEQEND
  8
0
  0
POLYLINE
  8
0
 62
0
 70
0
 66
1
 10
0.0
 20
0.0
 30
0.0
  0
VERTEX
  8
0
 10
-61.501110699888734
 20
0.5999999999998901
 30
0.0
  0
VERTEX
  8
0
 10
-62.54034118443
 20
0.0
 30
0.0
  0
SEQEND
  8
0
  0
POLYLINE
  8
0
 62
0
 70
0
 66
1
 10
0.0
 20
0.0
 30
0.0
  0
VERTEX
  8
0
 10
-48.498889300111266
 20
0.59999999999989
 30
0.0
  0
VERTEX
  8
0
 10
-47.45965881557
 20
0.0
 30
0.0
  0
SEQEND
  8
0
  0
LINE
  8
0
 62
0
 10
-48.49888930011
 20
0.5999999999999
 30
0.0
 11
-49.30717967697399
 21
1.999999999997699
 31
0.0
  0
LINE
  8
0
 62
0
 10
-61.50111069989
 20
0.5999999999999
 30
0.0
 11
-60.69282032302601
 21
1.999999999997699
 31
0.0
  0
POLYLINE
  8
0
 62
0
 70
0
 66
1
 10
0.0
 20
0.0
 30
0.0
  0
VERTEX
  8
0
 10
-58.61435935394
 20
3.2
 30
0.0
  0
VERTEX
  8
0
 10
-60.69282032302449
 20
1.9999999999968203
 30
0.0
  0
SEQEND
  8
0
  0
POLYLINE
  8
0
 62
0
 70
0
 66
1
 10
0.0
 20
0.0
 30
0.0
  0
VERTEX
  8
0
 10
-51.38978258489754
 20
3.2
 30
0.0
  0
VERTEX
  8
0
 10
-51.385640646055
 20
3.2
 30
0.0
  0
SEQEND
  8
0
  0
POLYLINE
  8
0
 62
0
 70
0
 66
1
 10
0.0
 20
0.0
 30
0.0
  0
VERTEX
  8
0
 10
-51.38564064606
 20
3.2
 30
0.0
  0
VERTEX
  8
0
 10
-49.30717967697551
 20
1.9999999999968203
 30
0.0
  0
SEQEND
  8
0
  0
POLYLINE
  8
0
 62
0
 70
0
 66
1
 10
0.0
 20
0.0
 30
0.0
  0
VERTEX
  8
0
 10
-51.385640646055
 20
3.2
 30
0.0
  0
VERTEX
  8
0
 10
-54.91348278957635
 20
3.2
 30
0.0
  0
VERTEX
  8
0
 10
-58.61021741510247
 20
3.2
 30
0.0
  0
SEQEND
  8
0
  0
POLYLINE
  8
0
 62
0
 70
0
 66
1
 10
0.0
 20
0.0
 30
0.0
  0
VERTEX
  8
0
 10
-58.610217415102476
 20
3.2
 30
0.0
  0
VERTEX
  8
0
 10
-58.614359353945
 20
3.2
 30
0.0
  0
SEQEND
  8
0
  0
POLYLINE
  8
0
 62
0
 70
0
 66
1
 10
0.0
 20
0.0
 30
0.0
  0
VERTEX
  8
0
 10
61.501110699888734
 20
0.59999999999989
 30
0.0
  0
VERTEX
  8
0
 10
62.54034118443
 20
0.0
 30
0.0
  0
SEQEND
  8
0
  0
POLYLINE
  8
0
 62
0
 70
0
 66
1
 10
0.0
 20
0.0
 30
0.0
  0
VERTEX
  8
0
 10
48.498889300111266
 20
0.5999999999998901
 30
0.0
  0
VERTEX
  8
0
 10
47.45965881557
 20
0.0
 30
0.0
  0
SEQEND
  8
0
  0
LINE
  8
0
 62
0
 10
48.49888930011
 20
0.5999999999999
 30
0.0
 11
49.30717967697399
 21
1.999999999997699
 31
0.0
  0
LINE
  8
0
 62
0
 10
61.50111069989
 20
0.5999999999999
 30
0.0
 11
60.69282032302601
 21
1.999999999997699
 31
0.0
  0
POLYLINE
  8
0
 62
0
 70
0
 66
1
 10
0.0
 20
0.0
 30
0.0
  0
VERTEX
  8
0
 10
58.61435935394
 20
3.2
 30
0.0
  0
VERTEX
  8
0
 10
60.69282032302449
 20
1.9999999999968203
 30
0.0
  0
SEQEND
  8
0
  0
POLYLINE
  8
0
 62
0
 70
0
 66
1
 10
0.0
 20
0.0
 30
0.0
  0
VERTEX
  8
0
 10
58.614359353945
 20
3.2
 30
0.0
  0
VERTEX
  8
0
 10
55.08651721042365
 20
3.2
 30
0.0
  0
VERTEX
  8
0
 10
51.38978258489753
 20
3.2
 30
0.0
  0
SEQEND
  8
0
  0
POLYLINE
  8
0
 62
0
 70
0
 66
1
 10
0.0
 20
0.0
 30
0.0
  0
VERTEX
  8
0
 10
51.389782584897524
 20
3.2
 30
0.0
  0
VERTEX
  8
0
 10
51.385640646055
 20
3.2
 30
0.0
  0
SEQEND
  8
0
  0
POLYLINE
  8
0
 62
0
 70
0
 66
1
 10
0.0
 20
0.0
 30
0.0
  0
VERTEX
  8
0
 10
51.38564064606
 20
3.2
 30
0.0
  0
VERTEX
  8
0
 10
49.30717967697551
 20
1.9999999999968203
 30
0.0
  0
SEQEND
  8
0
  0
POLYLINE
  8
0
 62
0
 70
0
 66
1
 10
0.0
 20
0.0
 30
0.0
  0
VERTEX
  8
0
 10
58.610217415102476
 20
3.2
 30
0.0
  0
VERTEX
  8
0
 10
58.614359353945
 20
3.2
 30
0.0
  0
SEQEND
  8
0
  0
POLYLINE
  8
0
 62
0
 70
0
 66
1
 10
0.0
 20
0.0
 30
0.0
  0
VERTEX
  8
0
 10
52.5
 20
3.2
 30
0.0
  0
VERTEX
  8
0
 10
55.0
 20
3.2
 30
0.0
  0
VERTEX
  8
0
 10
57.5
 20
3.2
 30
0.0
  0
SEQEND
  8
0
  0
LINE
  8
0
 62
0
 10
-29.40000000000028
 20
-663.2999999999988
 30
0.0
 11
-29.659586707553323
 21
-662.9292717610305
 31
0.0
  0
LINE
  8
0
 62
0
 10
29.659586707555984
 20
-662.9292717610305
 30
0.0
 11
29.400000000002034
 21
-663.3000000000002
 31
0.0
  0
POLYLINE
  8
0
 62
0
 70
0
 66
1
 10
0.0
 20
0.0
 30
0.0
  0
VERTEX
  8
0
 10
29.4
 20
-663.2999999999987
 30
0.0
  0
VERTEX
  8
0
 10
29.194792329644443
 20
-663.2999999999987
 30
0.0
  0
SEQEND
  8
0
  0
POLYLINE
  8
0
 62
0
 70
0
 66
1
 10
0.0
 20
0.0
 30
0.0
  0
VERTEX
  8
0
 10
-29.194792329644443
 20
-663.2999999999987
 30
0.0
  0
VERTEX
  8
0
 10
-29.4
 20
-663.2999999999987
 30
0.0
  0
SEQEND
  8
0
  0
POLYLINE
  8
0
 62
0
 70
0
 66
1
 10
0.0
 20
0.0
 30
0.0
  0
VERTEX
  8
0
 10
-29.4
 20
-663.2999999999987
 30
0.0
  0
VERTEX
  8
0
 10
-28.300481301176532
 20
-663.2999999999987
 30
0.0
  0
VERTEX
  8
0
 10
-25.320938339074107
 20
-663.2999999999987
 30
0.0
  0
VERTEX
  8
0
 10
-20.658222879603418
 20
-663.2999999999987
 30
0.0
  0
VERTEX
  8
0
 10
-14.61432134491973
 20
-663.2999999999987
 30
0.0
  0
VERTEX
  8
0
 10
-7.577793203605743
 20
-663.2999999999987
 30
0.0
  0
VERTEX
  8
0
 10
-1.800230794746609e-15
 20
-663.2999999999987
 30
0.0
  0
VERTEX
  8
0
 10
7.577793203605733
 20
-663.2999999999987
 30
0.0
  0
VERTEX
  8
0
 10
14.614321344919722
 20
-663.2999999999987
 30
0.0
  0
VERTEX
  8
0
 10
20.65822287960342
 20
-663.2999999999987
 30
0.0
  0
VERTEX
  8
0
 10
25.3209383390741
 20
-663.2999999999987
 30
0.0
  0
VERTEX
  8
0
 10
28.30048130117653
 20
-663.2999999999987
 30
0.0
  0
VERTEX
  8
0
 10
29.4
 20
-663.2999999999987
 30
0.0
  0
SEQEND
  8
0
  0
LINE
  8
0
 62
0
 10
-29.4
 20
-663.2999999999987
 30
0.0
 11
-29.40000000000082
 21
-663.6
 31
0.0
  0
POLYLINE
  8
0
 62
0
 70
0
 66
1
 10
0.0
 20
0.0
 30
0.0
  0
VERTEX
  8
0
 10
29.4
 20
-663.6
 30
0.0
  0
VERTEX
  8
0
 10
28.300481301176532
 20
-663.6
 30
0.0
  0
VERTEX
  8
0
 10
25.320938339074107
 20
-663.6
 30
0.0
  0
VERTEX
  8
0
 10
20.658222879603418
 20
-663.6
 30
0.0
  0
VERTEX
  8
0
 10
14.61432134491973
 20
-663.6
 30
0.0
  0
VERTEX
  8
0
 10
7.577793203605743
 20
-663.6
 30
0.0
  0
VERTEX
  8
0
 10
1.800230794746609e-15
 20
-663.6
 30
0.0
  0
VERTEX
  8
0
 10
-7.577793203605733
 20
-663.6
 30
0.0
  0
VERTEX
  8
0
 10
-14.614321344919722
 20
-663.6
 30
0.0
  0
VERTEX
  8
0
 10
-20.65822287960342
 20
-663.6
 30
0.0
  0
VERTEX
  8
0
 10
-25.3209383390741
 20
-663.6
 30
0.0
  0
VERTEX
  8
0
 10
-28.30048130117653
 20
-663.6
 30
0.0
  0
VERTEX
  8
0
 10
-29.4
 20
-663.6
 30
0.0
  0
SEQEND
  8
0
  0
LINE
  8
0
 62
0
 10
29.4
 20
-663.2999999999987
 30
0.0
 11
29.40000000000082
 21
-663.6
 31
0.0
  0
POLYLINE
  8
0
 62
0
 70
0
 66
1
 10
0.0
 20
0.0
 30
0.0
  0
VERTEX
  8
0
 10
-29.4
 20
-663.6
 30
0.0
  0
VERTEX
  8
0
 10
-28.96278753578446
 20
-663.6
 30
0.0
  0
SEQEND
  8
0
  0
POLYLINE
  8
0
 62
0
 70
0
 66
1
 10
0.0
 20
0.0
 30
0.0
  0
VERTEX
  8
0
 10
28.96278753578446
 20
-663.6
 30
0.0
  0
VERTEX
  8
0
 10
29.4
 20
-663.6
 30
0.0
  0
SEQEND
  8
0
  0
POLYLINE
  8
0
 62
0
 70
0
 66
1
 10
0.0
 20
0.0
 30
0.0
  0
VERTEX
  8
0
 10
36.48965977857
 20
-663.6
 30
0.0
  0
VERTEX
  8
0
 10
36.48924206326516
 20
-663.6
 30
0.0
  0
SEQEND
  8
0
  0
POLYLINE
  8
0
 62
0
 70
0
 66
1
 10
0.0
 20
0.0
 30
0.0
  0
VERTEX
  8
0
 10
36.489242063265166
 20
-663.6
 30
0.0
  0
VERTEX
  8
0
 10
34.644663007866164
 20
-663.6
 30
0.0
  0
VERTEX
  8
0
 10
29.400000000000816
 20
-663.6
 30
0.0
  0
SEQEND
  8
0
  0
POLYLINE
  8
0
 62
0
 70
0
 66
1
 10
0.0
 20
0.0
 30
0.0
  0
VERTEX
  8
0
 10
-29.400000000000812
 20
-663.6
 30
0.0
  0
VERTEX
  8
0
 10
-34.671971881086954
 20
-663.6
 30
0.0
  0
VERTEX
  8
0
 10
-36.48965977857001
 20
-663.6
 30
0.0
  0
SEQEND
  8
0
  0
POLYLINE
  8
0
 62
0
 70
0
 66
1
 10
0.0
 20
0.0
 30
0.0
  0
VERTEX
  8
0
 10
-36.48965977857
 20
-663.6
 30
0.0
  0
VERTEX
  8
0
 10
-36.48924206326516
 20
-663.6
 30
0.0
  0
SEQEND
  8
0
  0
POLYLINE
  8
0
 62
0
 70
0
 66
1
 10
0.0
 20
0.0
 30
0.0
  0
VERTEX
  8
0
 10
-36.489242063265166
 20
-663.6
 30
0.0
  0
VERTEX
  8
0
 10
-35.601752238867846
 20
-663.6
 30
0.0
  0
VERTEX
  8
0
 10
-33.174507526260754
 20
-663.6
 30
0.0
  0
VERTEX
  8
0
 10
-29.316591760313045
 20
-663.6
 30
0.0
  0
VERTEX
  8
0
 10
-24.197223175099797
 20
-663.6
 30
0.0
  0
VERTEX
  8
0
 10
-18.038477000041517
 20
-663.6
 30
0.0
  0
VERTEX
  8
0
 10
-11.1058758289537
 20
-663.6
 30
0.0
  0
VERTEX
  8
0
 10
-3.697233563495301
 20
-663.6
 30
0.0
  0
VERTEX
  8
0
 10
3.869795236690635
 20
-663.6
 30
0.0
  0
VERTEX
  8
0
 10
11.270960028790292
 20
-663.6
 30
0.0
  0
VERTEX
  8
0
 10
18.18892261428814
 20
-663.6
 30
0.0
  0
VERTEX
  8
0
 10
24.3264888704524
 20
-663.6
 30
0.0
  0
VERTEX
  8
0
 10
29.419034017013495
 20
-663.6
 30
0.0
  0
VERTEX
  8
0
 10
33.24562183864015
 20
-663.6
 30
0.0
  0
VERTEX
  8
0
 10
35.63836746991914
 20
-663.6
 30
0.0
  0
VERTEX
  8
0
 10
36.48965977857001
 20
-663.6
 30
0.0
  0
SEQEND
  8
0
  0
ARC
  8
0
 62
0
 10
-36.48965977857
 20
-662.6
 30
0.0
 40
1.0
 50
-160.77541967952598
 51
-90.0
  0
ARC
  8
0
 62
0
 10
36.48965977857
 20
-662.6
 30
0.0
 40
1.0
 50
-90.0
 51
-19.22458032047403
  0
POLYLINE
  8
0
 62
0
 70
0
 66
1
 10
0.0
 20
0.0
 30
0.0
  0
VERTEX
  8
0
 10
-37.43389497564
 20
-662.9292717610305
 30
0.0
  0
VERTEX
  8
0
 10
-37.433466451204694
 20
-662.9292717610305
 30
0.0
  0
SEQEND
  8
0
  0
LINE
  8
0
 62
0
 10
37.433894975639845
 20
-662.9292717610303
 30
0.0
 11
39.25777348257451
 21
-657.69903192497
 31
0.0
  0
LINE
  8
0
 62
0
 10
-37.433894975639845
 20
-662.9292717610303
 30
0.0
 11
-39.257773482572766
 21
-657.699031924975
 31
0.0
  0
POLYLINE
  8
0
 62
0
 70
0
 66
1
 10
0.0
 20
0.0
 30
0.0
  0
VERTEX
  8
0
 10
99.64805025504
 20
-657.69903192497
 30
0.0
  0
VERTEX
  8
0
 10
99.20945403785409
 20
-657.69903192497
 30
0.0
  0
VERTEX
  8
0
 10
98.27275677354746
 20
-657.69903192497
 30
0.0
  0
VERTEX
  8
0
 10
96.8403123826683
 20
-657.69903192497
 30
0.0
  0
VERTEX
  8
0
 10
94.6748399443973
 20
-657.69903192497
 30
0.0
  0
VERTEX
  8
0
 10
91.91796228021475
 20
-657.69903192497
 30
0.0
  0
VERTEX
  8
0
 10
88.69871593294512
 20
-657.69903192497
 30
0.0
  0
VERTEX
  8
0
 10
84.9149531038694
 20
-657.69903192497
 30
0.0
  0
VERTEX
  8
0
 10
80.49455593631143
 20
-657.69903192497
 30
0.0
  0
VERTEX
  8
0
 10
75.67413161936967
 20
-657.69903192497
 30
0.0
  0
VERTEX
  8
0
 10
70.46181206735668
 20
-657.69903192497
 30
0.0
  0
VERTEX
  8
0
 10
64.62922379659382
 20
-657.69903192497
 30
0.0
  0
VERTEX
  8
0
 10
58.48410950463184
 20
-657.69903192497
 30
0.0
  0
VERTEX
  8
0
 10
52.03793005214731
 20
-657.69903192497
 30
0.0
  0
VERTEX
  8
0
 10
45.191726731923595
 20
-657.69903192497
 30
0.0
  0
VERTEX
  8
0
 10
38.07366660216354
 20
-657.69903192497
 30
0.0
  0
VERTEX
  8
0
 10
30.764087093052233
 20
-657.69903192497
 30
0.0
  0
VERTEX
  8
0
 10
23.247565945099133
 20
-657.69903192497
 30
0.0
  0
VERTEX
  8
0
 10
15.5637359287839
 20
-657.69903192497
 30
0.0
  0
VERTEX
  8
0
 10
7.8099292190651655
 20
-657.69903192497
 30
0.0
  0
VERTEX
  8
0
 10
1.2203366578610933e-14
 20
-657.69903192497
 30
0.0
  0
SEQEND
  8
0
  0
POLYLINE
  8
0
 62
0
 70
0
 66
1
 10
0.0
 20
0.0
 30
0.0
  0
VERTEX
  8
0
 10
-99.64805025505
 20
-657.699031924975
 30
0.0
  0
VERTEX
  8
0
 10
-99.20945403786406
 20
-657.699031924975
 30
0.0
  0
VERTEX
  8
0
 10
-98.27275677355735
 20
-657.699031924975
 30
0.0
  0
VERTEX
  8
0
 10
-96.84031238267808
 20
-657.699031924975
 30
0.0
  0
VERTEX
  8
0
 10
-94.67483994440691
 20
-657.699031924975
 30
0.0
  0
VERTEX
  8
0
 10
-91.91796228022415
 20
-657.699031924975
 30
0.0
  0
VERTEX
  8
0
 10
-88.69871593295426
 20
-657.699031924975
 30
0.0
  0
VERTEX
  8
0
 10
-84.91495310387823
 20
-657.699031924975
 30
0.0
  0
VERTEX
  8
0
 10
-80.49455593631995
 20
-657.699031924975
 30
0.0
  0
VERTEX
  8
0
 10
-75.6741316193778
 20
-657.699031924975
 30
0.0
  0
VERTEX
  8
0
 10
-70.46181206736442
 20
-657.699031924975
 30
0.0
  0
VERTEX
  8
0
 10
-64.6292237966011
 20
-657.699031924975
 30
0.0
  0
VERTEX
  8
0
 10
-58.48410950463862
 20
-657.699031924975
 30
0.0
  0
VERTEX
  8
0
 10
-52.03793005215357
 20
-657.699031924975
 30
0.0
  0
VERTEX
  8
0
 10
-45.1917267319293
 20
-657.699031924975
 30
0.0
  0
VERTEX
  8
0
 10
-38.07366660216865
 20
-657.699031924975
 30
0.0
  0
VERTEX
  8
0
 10
-30.764087093056734
 20
-657.699031924975
 30
0.0
  0
VERTEX
  8
0
 10
-23.247565945103005
 20
-657.699031924975
 30
0.0
  0
VERTEX
  8
0
 10
-15.56373592878711
 20
-657.699031924975
 30
0.0
  0
VERTEX
  8
0
 10
-7.809929219067699
 20
-657.699031924975
 30
0.0
  0
VERTEX
  8
0
 10
-1.858610203836518e-12
 20
-657.699031924975
 30
0.0
  0
SEQEND
  8
0
  0
POLYLINE
  8
0
 62
0
 70
0
 66
1
 10
0.0
 20
0.0
 30
0.0
  0
VERTEX
  8
0
 10
-100.0
 20
-656.240905943779
 30
0.0
  0
VERTEX
  8
0
 10
-99.58081399288284
 20
-656.240905943779
 30
0.0
  0
VERTEX
  8
0
 10
-98.74507773227695
 20
-656.240905943779
 30
0.0
  0
VERTEX
  8
0
 10
-97.49279121818236
 20
-656.240905943779
 30
0.0
  0
VERTEX
  8
0
 10
-95.42315242661863
 20
-656.240905943779
 30
0.0
  0
VERTEX
  8
0
 10
-92.95785095063847
 20
-656.240905943779
 30
0.0
  0
VERTEX
  8
0
 10
-90.09688679024191
 20
-656.240905943779
 30
0.0
  0
VERTEX
  8
0
 10
-86.48057554529957
 20
-656.240905943779
 30
0.0
  0
VERTEX
  8
0
 10
-82.50932936415327
 20
-656.240905943779
 30
0.0
  0
VERTEX
  8
0
 10
-78.18314824680299
 20
-656.240905943779
 30
0.0
  0
VERTEX
  8
0
 10
-73.20150149470415
 20
-656.240905943779
 30
0.0
  0
VERTEX
  8
0
 10
-67.92344547439428
 20
-656.240905943779
 30
0.0
  0
VERTEX
  8
0
 10
-62.34898018587336
 20
-656.240905943779
 30
0.0
  0
VERTEX
  8
0
 10
-56.25179849631354
 20
-656.240905943779
 30
0.0
  0
VERTEX
  8
0
 10
-49.93159640494104
 20
-656.240905943779
 30
0.0
  0
VERTEX
  8
0
 10
-43.38837391175582
 20
-656.240905943779
 30
0.0
  0
VERTEX
  8
0
 10
-36.48139543426306
 20
-656.240905943779
 30
0.0
  0
VERTEX
  8
0
 10
-29.43596859555495
 20
-656.240905943779
 30
0.0
  0
VERTEX
  8
0
 10
-22.25209339563145
 20
-656.240905943779
 30
0.0
  0
VERTEX
  8
0
 10
-14.881662872097653
 20
-656.240905943779
 30
0.0
  0
VERTEX
  8
0
 10
-7.464298406887188
 20
-656.240905943779
 30
0.0
  0
VERTEX
  8
0
 10
-1.2246467991473532e-14
 20
-656.240905943779
 30
0.0
  0
SEQEND
  8
0
  0
POLYLINE
  8
0
 62
0
 70
0
 66
1
 10
0.0
 20
0.0
 30
0.0
  0
VERTEX
  8
0
 10
100.0
 20
-656.240905943782
 30
0.0
  0
VERTEX
  8
0
 10
99.58081399288284
 20
-656.240905943782
 30
0.0
  0
VERTEX
  8
0
 10
98.74507773227695
 20
-656.240905943782
 30
0.0
  0
VERTEX
  8
0
 10
97.49279121818236
 20
-656.240905943782
 30
0.0
  0
VERTEX
  8
0
 10
95.42315242661863
 20
-656.240905943782
 30
0.0
  0
VERTEX
  8
0
 10
92.95785095063847
 20
-656.240905943782
 30
0.0
  0
VERTEX
  8
0
 10
90.09688679024191
 20
-656.240905943782
 30
0.0
  0
VERTEX
  8
0
 10
86.48057554529957
 20
-656.240905943782
 30
0.0
  0
VERTEX
  8
0
 10
82.50932936415327
 20
-656.240905943782
 30
0.0
  0
VERTEX
  8
0
 10
78.18314824680299
 20
-656.240905943782
 30
0.0
  0
VERTEX
  8
0
 10
73.20150149470415
 20
-656.240905943782
 30
0.0
  0
VERTEX
  8
0
 10
67.92344547439428
 20
-656.240905943782
 30
0.0
  0
VERTEX
  8
0
 10
62.34898018587336
 20
-656.240905943782
 30
0.0
  0
VERTEX
  8
0
 10
56.25179849631354
 20
-656.240905943782
 30
0.0
  0
VERTEX
  8
0
 10
49.93159640494104
 20
-656.240905943782
 30
0.0
  0
VERTEX
  8
0
 10
43.38837391175582
 20
-656.240905943782
 30
0.0
  0
VERTEX
  8
0
 10
36.48139543426306
 20
-656.240905943782
 30
0.0
  0
VERTEX
  8
0
 10
29.43596859555495
 20
-656.240905943782
 30
0.0
  0
VERTEX
  8
0
 10
22.25209339563145
 20
-656.240905943782
 30
0.0
  0
VERTEX
  8
0
 10
14.881662872097653
 20
-656.240905943782
 30
0.0
  0
VERTEX
  8
0
 10
7.464298406887188
 20
-656.240905943782
 30
0.0
  0
VERTEX
  8
0
 10
1.2246467991473532e-14
 20
-656.240905943782
 30
0.0
  0
SEQEND
  8
0
  0
POLYLINE
  8
0
 62
0
 70
0
 66
1
 10
0.0
 20
0.0
 30
0.0
  0
VERTEX
  8
0
 10
0.0
 20
-642.0
 30
0.0
  0
VERTEX
  8
0
 10
7.046887424951684
 20
-642.0
 30
0.0
  0
VERTEX
  8
0
 10
13.891422435169586
 20
-642.0
 30
0.0
  0
VERTEX
  8
0
 10
20.2937327795748
 20
-642.0
 30
0.0
  0
VERTEX
  8
0
 10
26.095749781133186
 20
-642.0
 30
0.0
  0
VERTEX
  8
0
 10
31.101132232903865
 20
-642.0
 30
0.0
  0
VERTEX
  8
0
 10
35.14835929753032
 20
-642.0
 30
0.0
  0
VERTEX
  8
0
 10
38.1685172962255
 20
-642.0
 30
0.0
  0
VERTEX
  8
0
 10
39.96337339829595
 20
-642.0
 30
0.0
  0
VERTEX
  8
0
 10
40.64306819873
 20
-642.0
 30
0.0
  0
SEQEND
  8
0
  0
POLYLINE
  8
0
 62
0
 70
0
 66
1
 10
0.0
 20
0.0
 30
0.0
  0
VERTEX
  8
0
 10
-40.64306819873
 20
-642.0
 30
0.0
  0
VERTEX
  8
0
 10
-39.96337339829595
 20
-642.0
 30
0.0
  0
VERTEX
  8
0
 10
-38.16851729622552
 20
-642.0
 30
0.0
  0
VERTEX
  8
0
 10
-35.14835929753033
 20
-642.0
 30
0.0
  0
VERTEX
  8
0
 10
-31.10113223290387
 20
-642.0
 30
0.0
  0
VERTEX
  8
0
 10
-26.095749781133197
 20
-642.0
 30
0.0
  0
VERTEX
  8
0
 10
-20.29373277957482
 20
-642.0
 30
0.0
  0
VERTEX
  8
0
 10
-13.891422435169597
 20
-642.0
 30
0.0
  0
VERTEX
  8
0
 10
-7.046887424951682
 20
-642.0
 30
0.0
  0
VERTEX
  8
0
 10
-4.9773403377102276e-15
 20
-642.0
 30
0.0
  0
SEQEND
  8
0
  0
POLYLINE
  8
0
 62
0
 70
0
 66
1
 10
0.0
 20
0.0
 30
0.0
  0
VERTEX
  8
0
 10
3.0
 20
-611.5
 30
0.0
  0
VERTEX
  8
0
 10
3.6739403974420594e-16
 20
-611.5
 30
0.0
  0
SEQEND
  8
0
  0
POLYLINE
  8
0
 62
0
 70
0
 66
1
 10
0.0
 20
0.0
 30
0.0
  0
VERTEX
  8
0
 10
2.0
 20
-624.5
 30
0.0
  0
VERTEX
  8
0
 10
0.0
 20
-622.5
 30
0.0
  0
SEQEND
  8
0
  0
LINE
  8
0
 62
0
 10
2.0
 20
-630.5
 30
0.0
 11
2.0
 21
-624.5
 31
0.0
  0
POLYLINE
  8
0
 62
0
 70
0
 66
1
 10
0.0
 20
0.0
 30
0.0
  0
VERTEX
  8
0
 10
0.0
 20
-632.5
 30
0.0
  0
VERTEX
  8
0
 10
2.0
 20
-630.5
 30
0.0
  0
SEQEND
  8
0
  0
POLYLINE
  8
0
 62
0
 70
0
 66
1
 10
0.0
 20
0.0
 30
0.0
  0
VERTEX
  8
0
 10
-2.0
 20
-630.5
 30
0.0
  0
VERTEX
  8
0
 10
0.0
 20
-632.5
 30
0.0
  0
SEQEND
  8
0
  0
LINE
  8
0
 62
0
 10
-2.0
 20
-624.5
 30
0.0
 11
-2.0
 21
-630.5
 31
0.0
  0
POLYLINE
  8
0
 62
0
 70
0
 66
1
 10
0.0
 20
0.0
 30
0.0
  0
VERTEX
  8
0
 10
0.0
 20
-622.5
 30
0.0
  0
VERTEX
  8
0
 10
-2.0
 20
-624.5
 30
0.0
  0
SEQEND
  8
0
  0
POLYLINE
  8
0
 62
0
 70
0
 66
1
 10
0.0
 20
0.0
 30
0.0
  0
VERTEX
  8
0
 10
0.0
 20
-611.5
 30
0.0
  0
VERTEX
  8
0
 10
-3.0
 20
-611.5
 30
0.0
  0
SEQEND
  8
0
  0
POLYLINE
  8
0
 62
0
 70
0
 66
1
 10
0.0
 20
0.0
 30
0.0
  0
VERTEX
  8
0
 10
-2.0
 20
-624.5
 30
0.0
  0
VERTEX
  8
0
 10
-1.95981731089186
 20
-624.1011560042432
 30
0.0
  0
SEQEND
  8
0
  0
POLYLINE
  8
0
 62
0
 70
0
 66
1
 10
0.0
 20
0.0
 30
0.0
  0
VERTEX
  8
0
 10
-1.8186959342413132
 20
-623.6679232395957
 30
0.0
  0
VERTEX
  8
0
 10
-1.5893549449360327
 20
-623.2859357180496
 30
0.0
  0
SEQEND
  8
0
  0
POLYLINE
  8
0
 62
0
 70
0
 66
1
 10
0.0
 20
0.0
 30
0.0
  0
VERTEX
  8
0
 10
-1.2420572282805278
 20
-622.932378337206
 30
0.0
  0
VERTEX
  8
0
 10
-0.9188809536722438
 20
-622.7234486729425
 30
0.0
  0
SEQEND
  8
0
  0
POLYLINE
  8
0
 62
0
 70
0
 66
1
 10
0.0
 20
0.0
 30
0.0
  0
VERTEX
  8
0
 10
-0.662929954089854
 20
-622.6134028414839
 30
0.0
  0
VERTEX
  8
0
 10
-0.35012057346626935
 20
-622.5307588744331
 30
0.0
  0
SEQEND
  8
0
  0
POLYLINE
  8
0
 62
0
 70
0
 66
1
 10
0.0
 20
0.0
 30
0.0
  0
VERTEX
  8
0
 10
0.0
 20
-632.5
 30
0.0
  0
VERTEX
  8
0
 10
-0.36996403012722695
 20
-632.4655299824326
 30
0.0
  0
SEQEND
  8
0
  0
POLYLINE
  8
0
 62
0
 70
0
 66
1
 10
0.0
 20
0.0
 30
0.0
  0
VERTEX
  8
0
 10
-0.8019761654711515
 20
-632.3321287635729
 30
0.0
  0
VERTEX
  8
0
 10
-1.2577297022831029
 20
-632.0550061702703
 30
0.0
  0
SEQEND
  8
0
  0
POLYLINE
  8
0
 62
0
 70
0
 66
1
 10
0.0
 20
0.0
 30
0.0
  0
VERTEX
  8
0
 10
-1.584651843835926
 20
-631.7201926075973
 30
0.0
  0
VERTEX
  8
0
 10
-1.8120251157991858
 20
-631.346498877592
 30
0.0
  0
SEQEND
  8
0
  0
POLYLINE
  8
0
 62
0
 70
0
 66
1
 10
0.0
 20
0.0
 30
0.0
  0
VERTEX
  8
0
 10
-1.9590340786427687
 20
-630.9026836376853
 30
0.0
  0
VERTEX
  8
0
 10
-2.0
 20
-630.5
 30
0.0
  0
SEQEND
  8
0
  0
POLYLINE
  8
0
 62
0
 70
0
 66
1
 10
0.0
 20
0.0
 30
0.0
  0
VERTEX
  8
0
 10
0.0
 20
-622.5
 30
0.0
  0
VERTEX
  8
0
 10
0.37058465298208904
 20
-622.5345878889256
 30
0.0
  0
SEQEND
  8
0
  0
POLYLINE
  8
0
 62
0
 70
0
 66
1
 10
0.0
 20
0.0
 30
0.0
  0
VERTEX
  8
0
 10
0.8005577308174361
 20
-622.6672523658667
 30
0.0
  0
VERTEX
  8
0
 10
1.2570523913340708
 20
-622.9444452990177
 30
0.0
  0
SEQEND
  8
0
  0
POLYLINE
  8
0
 62
0
 70
0
 66
1
 10
0.0
 20
0.0
 30
0.0
  0
VERTEX
  8
0
 10
1.5846813790427272
 20
-623.2798459274904
 30
0.0
  0
VERTEX
  8
0
 10
1.8119686603701854
 20
-623.6533799269783
 30
0.0
  0
SEQEND
  8
0
  0
POLYLINE
  8
0
 62
0
 70
0
 66
1
 10
0.0
 20
0.0
 30
0.0
  0
VERTEX
  8
0
 10
1.9590440314298028
 20
-624.0973661571777
 30
0.0
  0
VERTEX
  8
0
 10
2.0
 20
-624.5
 30
0.0
  0
SEQEND
  8
0
  0
POLYLINE
  8
0
 62
0
 70
0
 66
1
 10
0.0
 20
0.0
 30
0.0
  0
VERTEX
  8
0
 10
5.0
 20
-639.5
 30
0.0
  0
VERTEX
  8
0
 10
2.485428800156417
 20
-639.5
 30
0.0
  0
VERTEX
  8
0
 10
-2.4854288001564155
 20
-639.5
 30
0.0
  0
VERTEX
  8
0
 10
-5.0
 20
-639.5
 30
0.0
  0
SEQEND
  8
0
  0
LINE
  8
0
 62
0
 10
-5.0
 20
-639.5
 30
0.0
 11
-5.0
 21
-642.0
 31
0.0
  0
LINE
  8
0
 62
0
 10
5.0
 20
-639.5
 30
0.0
 11
5.0
 21
-642.0
 31
0.0
  0
POLYLINE
  8
0
 62
0
 70
0
 66
1
 10
0.0
 20
0.0
 30
0.0
  0
VERTEX
  8
0
 10
0.0
 20
-678.3000000000001
 30
0.0
  0
VERTEX
  8
0
 10
-4.7644813964914166
 20
-677.9167164878445
 30
0.0
  0
VERTEX
  8
0
 10
-9.517210967160848
 20
-676.8132627385432
 30
0.0
  0
VERTEX
  8
0
 10
-14.154459765322606
 20
-675.0592339328442
 30
0.0
  0
VERTEX
  8
0
 10
-18.572498844290998
 20
-672.7242252514953
 30
0.0
  0
VERTEX
  8
0
 10
-22.66759925738033
 20
-669.8778318752449
 30
0.0
  0
VERTEX
  8
0
 10
-26.336032057904916
 20
-666.5896489848406
 30
0.0
  0
VERTEX
  8
0
 10
-29.474068299179066
 20
-662.9292717610303
 30
0.0
  0
SEQEND
  8
0
  0
POLYLINE
  8
0
 62
0
 70
0
 66
1
 10
0.0
 20
0.0
 30
0.0
  0
VERTEX
  8
0
 10
0.0
 20
-678.3000000000001
 30
0.0
  0
VERTEX
  8
0
 10
4.7644813964914166
 20
-677.9167164878445
 30
0.0
  0
VERTEX
  8
0
 10
9.517210967160848
 20
-676.8132627385432
 30
0.0
  0
VERTEX
  8
0
 10
14.154459765322606
 20
-675.0592339328442
 30
0.0
  0
VERTEX
  8
0
 10
18.572498844290998
 20
-672.7242252514953
 30
0.0
  0
VERTEX
  8
0
 10
22.66759925738033
 20
-669.8778318752449
 30
0.0
  0
VERTEX
  8
0
 10
26.336032057904916
 20
-666.5896489848406
 30
0.0
  0
VERTEX
  8
0
 10
29.474068299179066
 20
-662.9292717610303
 30
0.0
  0
SEQEND
  8
0
  0
LINE
  8
0
 62
0
 10
1.6
 20
-611.5
 30
0.0
 11
1.6
 21
-43.0
 31
0.0
  0
LINE
  8
0
 62
0
 10
-1.6
 20
-611.5
 30
0.0
 11
-1.6
 21
-43.0
 31
0.0
  0
POLYLINE
  8
0
 62
0
 70
0
 66
1
 10
0.0
 20
0.0
 30
0.0
  0
VERTEX
  8
0
 10
-65.0
 20
-2.4
 30
0.0
  0
VERTEX
  8
0
 10
-64.15497778094294
 20
-2.4
 30
0.0
  0
VERTEX
  8
0
 10
-63.19226474077553
 20
-2.4
 30
0.0
  0
VERTEX
  8
0
 10
-60.69957102617337
 20
-2.4
 30
0.0
  0
VERTEX
  8
0
 10
-57.98935196526944
 20
-2.4
 30
0.0
  0
VERTEX
  8
0
 10
-53.97398082655484
 20
-2.4
 30
0.0
  0
VERTEX
  8
0
 10
-49.67546755602147
 20
-2.4
 30
0.0
  0
VERTEX
  8
0
 10
-44.33876646881926
 20
-2.4
 30
0.0
  0
VERTEX
  8
0
 10
-38.70100096108784
 20
-2.4
 30
0.0
  0
VERTEX
  8
0
 10
-32.31057440203342
 20
-2.4
 30
0.0
  0
VERTEX
  8
0
 10
-25.65826112866335
 20
-2.4
 30
0.0
  0
VERTEX
  8
0
 10
-18.534551769525134
 20
-2.4
 30
0.0
  0
VERTEX
  8
0
 10
-11.249669438902565
 20
-2.4
 30
0.0
  0
VERTEX
  8
0
 10
-3.749889812967522
 20
-2.4
 30
0.0
  0
VERTEX
  8
0
 10
3.7498898129675178
 20
-2.4
 30
0.0
  0
VERTEX
  8
0
 10
11.249669438902561
 20
-2.4
 30
0.0
  0
VERTEX
  8
0
 10
18.53455176952513
 20
-2.4
 30
0.0
  0
VERTEX
  8
0
 10
25.658261128663348
 20
-2.4
 30
0.0
  0
VERTEX
  8
0
 10
32.310574402033396
 20
-2.4
 30
0.0
  0
VERTEX
  8
0
 10
38.70100096108783
 20
-2.4
 30
0.0
  0
VERTEX
  8
0
 10
44.338766468819244
 20
-2.4
 30
0.0
  0
VERTEX
  8
0
 10
49.67546755602146
 20
-2.4
 30
0.0
  0
VERTEX
  8
0
 10
53.973980826554836
 20
-2.4
 30
0.0
  0
VERTEX
  8
0
 10
57.989351965269435
 20
-2.4
 30
0.0
  0
VERTEX
  8
0
 10
60.69957102617337
 20
-2.4
 30
0.0
  0
VERTEX
  8
0
 10
63.19226474077553
 20
-2.4
 30
0.0
  0
VERTEX
  8
0
 10
64.15497778094294
 20
-2.4
 30
0.0
  0
VERTEX
  8
0
 10
65.0
 20
-2.4
 30
0.0
  0
SEQEND
  8
0
  0
POLYLINE
  8
0
 62
0
 70
0
 66
1
 10
0.0
 20
0.0
 30
0.0
  0
VERTEX
  8
0
 10
5.385985592617
 20
-42.93185165258
 30
0.0
  0
VERTEX
  8
0
 10
2.677296741830963
 20
-42.93185165258
 30
0.0
  0
VERTEX
  8
0
 10
-2.6772967418089078
 20
-42.93185165258
 30
0.0
  0
VERTEX
  8
0
 10
-5.385985592617
 20
-42.93185165258
 30
0.0
  0
SEQEND
  8
0
  0
POLYLINE
  8
0
 62
0
 70
0
 66
1
 10
0.0
 20
0.0
 30
0.0
  0
VERTEX
  8
0
 10
-61.501110699893
 20
0.5999999999999
 30
0.0
  0
VERTEX
  8
0
 10
-58.32200851328549
 20
0.5999999999999
 30
0.0
  0
VERTEX
  8
0
 10
-51.94991388481637
 20
0.5999999999999
 30
0.0
  0
VERTEX
  8
0
 10
-48.506483122571076
 20
0.5999999999999
 30
0.0
  0
SEQEND
  8
0
  0
POLYLINE
  8
0
 62
0
 70
0
 66
1
 10
0.0
 20
0.0
 30
0.0
  0
VERTEX
  8
0
 10
-48.506483122571076
 20
0.5999999999999
 30
0.0
  0
VERTEX
  8
0
 10
-48.498889300106995
 20
0.5999999999999
 30
0.0
  0
SEQEND
  8
0
  0
POLYLINE
  8
0
 62
0
 70
0
 66
1
 10
0.0
 20
0.0
 30
0.0
  0
VERTEX
  8
0
 10
-60.686296535183345
 20
2.0
 30
0.0
  0
VERTEX
  8
0
 10
-60.692820323028
 20
2.0
 30
0.0
  0
SEQEND
  8
0
  0
POLYLINE
  8
0
 62
0
 70
0
 66
1
 10
0.0
 20
0.0
 30
0.0
  0
VERTEX
  8
0
 10
-49.307179676972
 20
2.0
 30
0.0
  0
VERTEX
  8
0
 10
-52.09177010130787
 20
2.0
 30
0.0
  0
VERTEX
  8
0
 10
-57.672391188667156
 20
2.0
 30
0.0
  0
VERTEX
  8
0
 10
-60.68629653518334
 20
2.0
 30
0.0
  0
SEQEND
  8
0
  0
POLYLINE
  8
0
 62
0
 70
0
 66
1
 10
0.0
 20
0.0
 30
0.0
  0
VERTEX
  8
0
 10
-60.461880215352
 20
-2.8133051444e-13
 30
0.0
  0
VERTEX
  8
0
 10
-60.454132207076206
 20
-2.8133051444e-13
 30
0.0
  0
SEQEND
  8
0
  0
POLYLINE
  8
0
 62
0
 70
0
 66
1
 10
0.0
 20
0.0
 30
0.0
  0
VERTEX
  8
0
 10
48.498889300107
 20
0.5999999999999
 30
0.0
  0
VERTEX
  8
0
 10
51.67799148676927
 20
0.5999999999999
 30
0.0
  0
VERTEX
  8
0
 10
58.05008611521204
 20
0.5999999999999
 30
0.0
  0
VERTEX
  8
0
 10
61.493516877428924
 20
0.5999999999999
 30
0.0
  0
SEQEND
  8
0
  0
POLYLINE
  8
0
 62
0
 70
0
 66
1
 10
0.0
 20
0.0
 30
0.0
  0
VERTEX
  8
0
 10
61.493516877428924
 20
0.5999999999999
 30
0.0
  0
VERTEX
  8
0
 10
61.501110699893005
 20
0.5999999999999
 30
0.0
  0
SEQEND
  8
0
  0
POLYLINE
  8
0
 62
0
 70
0
 66
1
 10
0.0
 20
0.0
 30
0.0
  0
VERTEX
  8
0
 10
60.692820323028
 20
2.0
 30
0.0
  0
VERTEX
  8
0
 10
57.908229898644166
 20
2.0
 30
0.0
  0
VERTEX
  8
0
 10
52.32760881130796
 20
2.0
 30
0.0
  0
VERTEX
  8
0
 10
49.31370346481666
 20
2.0
 30
0.0
  0
SEQEND
  8
0
  0
POLYLINE
  8
0
 62
0
 70
0
 66
1
 10
0.0
 20
0.0
 30
0.0
  0
VERTEX
  8
0
 10
49.313703464816655
 20
2.0
 30
0.0
  0
VERTEX
  8
0
 10
49.307179676972
 20
2.0
 30
0.0
  0
SEQEND
  8
0
  0
POLYLINE
  8
0
 62
0
 70
0
 66
1
 10
0.0
 20
0.0
 30
0.0
  0
VERTEX
  8
0
 10
-37.4334664512047
 20
-662.9292717610305
 30
0.0
  0
VERTEX
  8
0
 10
-36.523011240604205
 20
-662.9292717610305
 30
0.0
  0
VERTEX
  8
0
 10
-34.03295723069334
 20
-662.9292717610305
 30
0.0
  0
VERTEX
  8
0
 10
-30.075210995630663
 20
-662.9292717610305
 30
0.0
  0
VERTEX
  8
0
 10
-24.82336959389165
 20
-662.9292717610305
 30
0.0
  0
VERTEX
  8
0
 10
-18.505254848569894
 20
-662.9292717610305
 30
0.0
  0
VERTEX
  8
0
 10
-11.39326022539964
 20
-662.9292717610305
 30
0.0
  0
VERTEX
  8
0
 10
-3.792906093291939
 20
-662.9292717610305
 30
0.0
  0
VERTEX
  8
0
 10
3.9699331083539495
 20
-662.9292717610305
 30
0.0
  0
VERTEX
  8
0
 10
11.562616274108613
 20
-662.9292717610305
 30
0.0
  0
VERTEX
  8
0
 10
18.65959351211021
 20
-662.9292717610305
 30
0.0
  0
VERTEX
  8
0
 10
24.955980270262895
 20
-662.9292717610305
 30
0.0
  0
VERTEX
  8
0
 10
30.180304128909274
 20
-662.9292717610305
 30
0.0
  0
VERTEX
  8
0
 10
34.105911753071304
 20
-662.9292717610305
 30
0.0
  0
VERTEX
  8
0
 10
36.56057395623388
 20
-662.9292717610305
 30
0.0
  0
VERTEX
  8
0
 10
37.43389497564
 20
-662.9292717610305
 30
0.0
  0
SEQEND
  8
0
  0
POLYLINE
  8
0
 62
0
 70
0
 66
1
 10
0.0
 20
0.0
 30
0.0
  0
VERTEX
  8
0
 10
41.34696768864
 20
-642.08374803762
 30
0.0
  0
VERTEX
  8
0
 10
40.65550121730304
 20
-642.08374803762
 30
0.0
  0
VERTEX
  8
0
 10
38.829559905608875
 20
-642.08374803762
 30
0.0
  0
VERTEX
  8
0
 10
35.75709562766493
 20
-642.08374803762
 30
0.0
  0
VERTEX
  8
0
 10
31.639774419249648
 20
-642.08374803762
 30
0.0
  0
VERTEX
  8
0
 10
26.54770347886935
 20
-642.08374803762
 30
0.0
  0
VERTEX
  8
0
 10
20.64520103197312
 20
-642.08374803762
 30
0.0
  0
VERTEX
  8
0
 10
14.132008729453002
 20
-642.08374803762
 30
0.0
  0
VERTEX
  8
0
 10
7.168932848284944
 20
-642.08374803762
 30
0.0
  0
VERTEX
  8
0
 10
5.0635431634342015e-15
 20
-642.08374803762
 30
0.0
  0
SEQEND
  8
0
  0
POLYLINE
  8
0
 62
0
 70
0
 66
1
 10
0.0
 20
0.0
 30
0.0
  0
VERTEX
  8
0
 10
0.0
 20
-642.08374803762
 30
0.0
  0
VERTEX
  8
0
 10
-7.168932848284948
 20
-642.08374803762
 30
0.0
  0
VERTEX
  8
0
 10
-14.132008729452995
 20
-642.08374803762
 30
0.0
  0
VERTEX
  8
0
 10
-20.645201031973105
 20
-642.08374803762
 30
0.0
  0
VERTEX
  8
0
 10
-26.54770347886934
 20
-642.08374803762
 30
0.0
  0
VERTEX
  8
0
 10
-31.639774419249644
 20
-642.08374803762
 30
0.0
  0
VERTEX
  8
0
 10
-35.75709562766492
 20
-642.08374803762
 30
0.0
  0
VERTEX
  8
0
 10
-38.82955990560887
 20
-642.08374803762
 30
0.0
  0
VERTEX
  8
0
 10
-40.65550121730304
 20
-642.08374803762
 30
0.0
  0
VERTEX
  8
0
 10
-41.34696768864
 20
-642.08374803762
 30
0.0
  0
SEQEND
  8
0
  0
LINE
  8
0
 62
0
 10
0.0
 20
-657.699031924973
 30
0.0
 11
0.0
 21
-656.2409059437825
 31
0.0
  0
LINE
  8
0
 62
0
 10
0.0
 20
-656.2409059437811
 30
0.0
 11
0.0
 21
-642.0837480376155
 31
0.0
  0
POLYLINE
  8
0
 62
0
 70
0
 66
1
 10
0.0
 20
0.0
 30
0.0
  0
VERTEX
  8
0
 10
3.153033389935e-14
 20
-642.0
 30
0.0
  0
VERTEX
  8
0
 10
3.153033389935e-14
 20
-642.0837480376141
 30
0.0
  0
SEQEND
  8
0
  0
LINE
  8
0
 62
0
 10
0.0
 20
-611.5
 30
0.0
 11
0.0
 21
-622.5
 31
0.0
  0
LINE
  8
0
 62
0
 10
0.0
 20
-632.5
 30
0.0
 11
0.0
 21
-639.5
 31
0.0
  0
LINE
  8
0
 62
0
 10
0.0
 20
-622.5
 30
0.0
 11
0.0
 21
-632.5
 31
0.0
  0
LINE
  8
0
 62
0
 10
-99.648050255042
 20
-657.6990319249733
 30
0.0
 11
-99.99999999999751
 21
-656.2409059437784
 31
0.0
  0
LINE
  8
0
 62
0
 10
99.64805025504259
 20
-657.6990319249708
 30
0.0
 11
99.99999999999683
 21
-656.2409059437814
 31
0.0
  0
LINE
  8
0
 62
0
 10
41.346967688641776
 20
-642.0837480376125
 30
0.0
 11
99.99999999999757
 21
-656.2409059437921
 31
0.0
  0
POLYLINE
  8
0
 62
0
 70
0
 66
1
 10
0.0
 20
0.0
 30
0.0
  0
VERTEX
  8
0
 10
41.346967688640746
 20
-642.0837480376169
 30
0.0
  0
VERTEX
  8
0
 10
40.643068198730006
 20
-642.0
 30
0.0
  0
SEQEND
  8
0
  0
POLYLINE
  8
0
 62
0
 70
0
 66
1
 10
0.0
 20
0.0
 30
0.0
  0
VERTEX
  8
0
 10
-41.346967688640746
 20
-642.0837480376169
 30
0.0
  0
VERTEX
  8
0
 10
-40.643068198730006
 20
-642.0
 30
0.0
  0
SEQEND
  8
0
  0
LINE
  8
0
 62
0
 10
-41.346967688641776
 20
-642.0837480376125
 30
0.0
 11
-99.99999999999686
 21
-656.2409059437919
 31
0.0
  0
LINE
  8
0
 62
0
 10
3.0
 20
-639.5
 30
0.0
 11
3.0
 21
-611.5
 31
0.0
  0
LINE
  8
0
 62
0
 10
-3.0
 20
-639.5
 30
0.0
 11
-3.0
 21
-611.5
 31
0.0
  0
ENDBLK
  0
ENDSEC
  0
SECTION
  2
ENTITIES
  0
INSERT
  2
FACEFEAT
  8
0
 62
0
 10
0.0
 20
0.0
 30
0.0
  0
ENDSEC
  0
EOF
